Green Day: другие аккорды и тексты

Табулатура: Green Day - "Worry Rock"

» Главная
» Аккорды
» Школа игры
» Софт для гитары
» Схемы примочек
» Продам
» Куплю
» Фотографии
» [ne]FORMAT
» Ссылки
» MIDI
» Контакты


» Два капитана (Каверин) купить книгу в "Читай-город"
»

Worry Rock

(альбом "Nimrod")

Green Day

слова: Billi Joe, музыка: Billi Joe
год: 1997
подбор: fosfato@mail.ru

Green Day
Worry Rock



e:-----------------:-----------------:-----------------:-----------------:
b:-----------------:-----------------:-----------------:-----------------:
g:-9-9-9-9-9-9-9-9-:-4-4-4-4-4-4-4-4-:-2-2-2-2-2-2-2-2-:-9-9-9-9-9-9-9-9-:
d:-9-9-9-9-9-9-9-9-:-4-4-4-4-4-4-4-4-:-2-2-2-2-2-2-2-2-:-9-9-9-9-9-9-9-9-:
a:-7-7-7-7-7-7-7-7-:-2-2-2-2-2-2-2-2-:-0-0-0-0-0-0-0-0-:-7-7-7-7-7-7-7-7-:
e:-----------------:-----------------:-----------------:-----------------:

e:-----------------:-----------------:-----------------:-----------------:
b:-----------------:-----------------:-----------------:-----------------:
g:-2-2-2-2-2-2-2-2-:-----------------:-2-2-2-2-2-2-2-2-:-4-4-4-4-4-4-4-4-:
d:-2-2-2-2-2-2-2-2-:-2-2-2-2-2-2-2-2-:-2-2-2-2-2-2-2-2-:-4-4-4-4-4-4-4-4-:
a:-0-0-0-0-0-0-0-0-:-2-2-2-2-2-2-2-2-:-0-0-0-0-0-0-0-0-:-2-2-2-2-2-2-2-2-:
e:-----------------:-0-0-0-0-0-0-0-0-:-----------------:-----------------:
                                      ___________________________________
CHORUS                               |1.                                 |
e:-----------------:-----------------:-----------------:-----------------:
b:-----------------:-----------------:-----------------:-----------------:
g:*6-6-6-6-6-6-6-6-:-----------------:-----------------:----------------*:
d:*6-6-6-6-6-6-6-6-:-6-6-6-6-6-6-6-6-:-7-7-7-7-7-7-7-7-:-2-2-2-2-2-2-2-2*:
a:-4-4-4-4-4-4-4-4-:-6-6-6-6-6-6-6-6-:-7-7-7-7-7-7-7-7-:-2-2-2-2-2-2-2-2-:
e:-----------------:-4-4-4-4-4-4-4-4-:-5-5-5-5-5-5-5-5-:-0-0-0-0-0-0-0-0-:
  ___________________________________
 |2.
e:-----------------:-----------------:
b:-----------------:-----------------:
g:-----------------:-4-4-4-4-4-4-4-4-:
d:-4-4-4-4-4-4-4-4-:-4-4-4-4-4-4-4-4-:
a:-4-4-4-4-4-4-4-4-:-2-2-2-2-2-2-2-2-:
e:-2-2-2-2-2-2-2-2-:-----------------: