Joe Satriani:

: Joe Satriani - "Cryin'"










[ne]FORMAT



MIDI







Cryin'

Joe Satriani

: Jerry Moffett <JMOFFETT@postoff1.promus.com>


 --------------------------------------------------------------------------------
 --------------------------------------------------------------------------------
 11--(12)--11p9-----11--(12)--(11)--(12)p9-------------9~~~---------11--(12)-----
 -------------------------------------------11--9--11--------11--9---------------
 --------------------------------------------------------------------------------
 --------------------------------------------------------------------------------

 --------------------------------------------------------------------------------
 --------------------------------------------------------------------------------
 11p9--11--(12)--(11)--(12)p9-------------11--(12)--11p9--11--(12)--(11)---------
 ------------------------------9/11/14\9-----------------------------------------
 --------------------------------------------------------------------------------
 --------------------------------------------------------------------------------

 --------------------------------------------------------------------------------
 --------------------------------------------------------------------------------
(12)p9-------------9~~~--------------------------------------(20)--(19)p17-------
 --------11--9--11--------11--9-----12/14\9--9/14\12\9---------------------------
 --------------------------------------------------------------------------------
 --------------------------------------------------------------------------------

 --------------------------------------------------------------------------------
 --------------------------------------------------------------------------------
 19--(20)--(19)--(20)--(19)p17---------17-------------(20)--(19)p17--19--(20)----
 -------------------------------x--18------18--16--------------------------------
 --------------------------------------------------------------------------------
 --------------------------------------------------------------------------------

 ---------------------19--19--(21)--(19)~~~--------------------------------------
 --------------------------------------------------------------------------------
(19)--(20)--(19)p17-------------------------(20)--(19)p17--19--(20)--(19)--------
 --------------------------------------------------------------------------------
 --------------------------------------------------------------------------------
 --------------------------------------------------------------------------------

 ----------------------------------------------------------------------17--------
 ------------------------------------------------------------------17------------
(20)--(19)p17----------17--17----------16----------------------------------------
 ---------------18--18----------18--16------16--18--(21)--(18)-------------------
 --------------------------------------------------------------------------------
 --------------------------------------------------------------------------------

(19)------17--(19)--------------16--(17)--(16)-----------------------------------
 ------17------------16--17--17------------------17--(19)--17-----(19)~~~--------
 --------------------------------------------------------------------------------
 --------------------------------------------------------------------------------
 --------------------------------------------------------------------------------
 --------------------------------------------------------------------------------

 ----17--(19)------17--(19)--------------19--(21)--16--(17)--(16)----------------
 17------------17------------16--17--17----------------------------17--(19)------
 --------------------------------------------------------------------------------
 --------------------------------------------------------------------------------
 --------------------------------------------------------------------------------
 --------------------------------------------------------------------------------

 --------------------------------------------------------------------------------
 ~~~-----------------------------------------------------------------------------
 --------------------------------------------------------------------------------
 --------------2--4--2--x--x--4--2--(6)--(4)p2--x--x-----------2-----------------
 --------2--4-----------------------------------------4--2--4-----4--2-----------
 -----------------------------------------------------------------------2--------

 --------------------------------------------------------------------------------
 --------------------------------------------------------------------------------
 --------------------------------------------------------------------------------
 ----------------2--4--2--x--x--4--2--(6)--(4)p2--x--x--2/4/7\2------------------
 ----------2--4--------------------------------------------------------2--4------
(4)p0----------------------------------------------------------------------------

 --------------------------------------------------------------------------------
 --------------------------------------------------------------------------------
 --------------------------------------------------------------------------------
 2--4--2--x--x--4--2--(6)--(4)p2--x--x-----------2--2--------------------2--4----
 ---------------------------------------4--2--4--------4--2-----2--2--4----------
 --------------------------------------------------------------------------------

 ------------------------------9-------------------------------------------------
 ---------------------------------9---------------------------------12--(14)-----
 --------4--4--6--4--11--(13)--------(12)--11--(13)--(11)p9--11--9---------------
 2--4/6--------------------------------------------------------------------------
 --------------------------------------------------------------------------------
 --------------------------------------------------------------------------------

 ---------17--(19)------17--(19)--------------16--(17)--(16)---------------------
 ~~~--17------------17------------16--17--17------------------17--(19)--(17)-----
 --------------------------------------------------------------------------------
 --------------------------------------------------------------------------------
 --------------------------------------------------------------------------------
 --------------------------------------------------------------------------------

 -----------------------------------------17--(19)------17--(19)-----------------
 ---(19)~~~---------------------------17------------17------------16--17--17-----
 ------------16--(18)--(16)--(18)------------------------------------------------
 --------------------------------------------------------------------------------
 --------------------------------------------------------------------------------
 --------------------------------------------------------------------------------

 19--(21)--16--(17)--(16)--------------------------------------------------------
 --------------------------17--(19)~~~-------------------------------------------
 --------------------------------------------------------------------------------
 --------------------------------------------------------------------------------
 --------------------------------------------------------------------------------
 --------------------------------------------------------------------------------

================================================================================
==                           TABLATURE EXPLANATION                            ==
================================================================================

 ----------                            ----------
 ----5h8--- Hammeron                   ----(8)--- Ghost Note
 ----------                            ----------
 ----5p8--- Pulloff                    ----------

 ----------                            ----------
 ----5/8--- Slide Up                   -----x---- Dead Note
 ----------                            ----------
 ----5\8--- Slide Down                 ----------

 ----------                            ||------|| Repeat Start & End
 ----5~~~-- Vibrato                    ||*----*||
 ----------                            ||*----*||
 ----------                            ||------||


I used "Bucket 'o Tab" to tab this.  The only complaint I have is how to tab 
a bend.  Maybe I just don't know how to use it yet, but anyway....

For bends, I put the note bent to in parens.  On pre-bends, the paren note 
is first.