Земфира: другие аккорды и тексты

Аккорды и текст: Земфира - "Хочешь?"

» Главная
» Аккорды
» Школа игры
» Софт для гитары
» Схемы примочек
» Магазин
» Продам
» Куплю
» Фотографии
» [ne]FORMAT
» Ссылки
» Форум
» Знакомства
» MIDI
» Контакты


»



Хочешь?

Земфира


verse1:
(distorted, используется palm muting)
   F5                 G5               A5
D|-----------------------------------------------------------------|
A|----------3----------------5-----------------7-------------7-----|
E|-1------------------3--3-------------5-----5-------5-5---5-------|
     Пожалуйста,     не  умирай,       или мне придется   тоже.

D|-----------------------------------------------------------------|
A|----------3----------------5-----------------7-------7-----7p5---|
E|-1------------------3--3-------------5-----5-------5-----5-----7-|
     Ты, конечно,   сразу в рай,     а я не думаю,    что тоже.

chorus:
   D
D|----------7p5-----------7p5----|
A|-5------5---------5---5-----7\-|
E|-------------------------------|
  Хочешь  сладких   апельсинов?
   Bb
D|----------3p1-----------3p1----|
A|-1------1---------1---1-----3--|
E|-------------------------------|
  Хочешь вслух рассказов длинных?
   G
D|-------------------------------|
A|----------5p3-----------5p3----|
E|-3------3---------3---3-----5--|
  Хочешь, я взорву  все звезды,
   F             C
D|-------------------------2-3-5-|
A|-----------3---3-3-3-2-3-------|
E|-1-1-1-1-3---------------------|
  Что мешают спать?

Riff1:

A|-8---7-8--10--8--7--8---8---7-8--10--8--7--8-|

A|-8---7-8--10--8--7--8---8---7-8--10--7--13--12-|

verse2:
   F5                 G5
Пожалуйста, только живи,
       A5
Ты же видишь - я живу тобою,
  F5              G5
Моей огромной любви
  A5
Хватит нам двоим с головою.

 D
Хочешь море с парусами?
 Bb
Хочешь музык новых самых?
 G
Хочешь, я убью соседей,
 F               C
Что мешают спать?

[Riff1]

Solo:
(промежутки соблюдены не везде, на 14 и 17 ладах часто используется vibrato)
e|--------------------------------------------------------|
B|--------------------------------------------------------|
G|------------------------------------------------------9-|
D|-12---12---12-12p10---10---10-10p8---8p7-7-7\5-7-10-----|
A|--------------------------------------------------------|
E|--------------------------------------------------------|

e|-----------------------------------------------------|
B|-----------------------------------------------------|
G|-9-9/10---10---10-10/12---12---12/14---17---17-17-17-|
D|-----------------------------------------------------|
A|-----------------------------------------------------|
E|-----------------------------------------------------|

e|-------------------------------------------------------|
B|-------------------------------------------------------|
G|-14/17-----17\10---12---10-9h10h12------17-----17---17-|
D|-----------------------------------10------------------|
A|-------------------------------------------------------|
E|-------------------------------------------------------|

e|--------------------------------------------|
B|----------13--------------------------------|
G|-10-10h12----12-10--------------------------|
D|-------------------12---12p10---------------|
A|------------------------------12-10-9-7-9-8-|
E|--------------------------------------------|

e|----------------------/15-15-|
B|-/14-14-----/17-17-----------|
G|-----------------------------|
D|-----------------------------|
A|-----------------------------|
E|-----------------------------|

 D
Хочешь солнце вместо лампы?
 Bb
Хочешь за окошком Альпы?
 F (здесь и далее без palm muting)
Хочешь, я отдам все песни
  Bb        A
Пpо тебя отдам все песни!

[Riff1]
Хочешь солнце вместо лампы?
Хочешь за окошком Альпы?
Хочешь, я отдам все песни
Пpо тебя отдам все песни я...

[Riff1] 3 раза