Z:

: Z - "Zero"










[ne]FORMAT



MIDI







Zero

Z


intro:
Am                D         fill1:
  -----          G-------------
                              D--7---9\2-2--
verse:
   Am                D
      
      
     Dm                Em                Dm7
    , y  y       -1-
      Dm7                  G             -1-
    p       -2-
                                         -0-
chorus:                                  -x-
     Dm      Em                Dm7       -x-
         po p
       G            F
      y 
    A
  9:0

fill2:
  B-----------------
  G--/9--7----------
  D--------9-7---7--
  A------------9----
  E-----------------

[intro]

verse:
  y   
      
  p  y, p  pp
  H  yy  pp

chorus:
      p p
      y 
  9:0
  Zero

rythm:
  Am  D [x2]

solo:
  G------------------------------------3--2--
  D--------------------------2-3-5--2--------
  A--5---3-5/7-5---3-5/7-5-------------------
  E------------------------------------------

[chorus]

[fill2]

[intro]