Франческа Да Милано: другие аккорды и тексты

Аккорды и текст: Франческа Да Милано - "Канцона"

» Главная
» Аккорды
» Школа игры
» Софт для гитары
» Схемы примочек
» Магазин
» Продам
» Куплю
» Фотографии
» [ne]FORMAT
» Ссылки
» Форум
» Знакомства
» MIDI
» Контакты


»



Канцона

Франческа Да Милано


Эта мелодия известна многим - её использует БГ в песне "Город Золотой".
В оригинале она играется сложнее, но это очень хорошо подобранный вариант.
При исполнении обращайте внимание на длительность нот - это очень важно.
Подбор - yachsmit gigameg@bk.ru
      E||---------------------------|-----0---------------------|
B||--0--1--0------------------|--------3--1--0--1--0-1-5--|
G||-----------2--1--2--4-5-2--|--2------------------------|
D||---------------------------|---------------------------|
A||-----0---------------------|-----0---------------------|
E||---------------------------|---------------------------|
                                                       
--0--1---0----------------|------0--------------------|
-----------3---1-0-1-3----|--5/6----3--1--3--0--------|
--------------------------|---------------------1-----|
-----0--------------------|------------------------2--|
--------------------------|------0--------------------|
--------------------------|------------------0--------|    
                                                            
-----------0-----------------|-----------3--------------3--|
--2--2--------2--5-3-2-3-10--|--3--3----------3-3-1-0-1----|
--------0--------------------|--------0-----0--------------|
-----------------0-------0---|-----------------------------|
-----0-----------------------|------------------3-------3--|
-----------------------------|-----3-----------------------|
                                                              
-----0-1-5-10-8-7-5-5----4---|-----0-1-5-10-8-7-5-5--4--5---||
---3-------------------------|---3--------------------------||
-----------------------------|------------------------------||
---0-------0--------3----2---|---0-------0--------3--2------||
-----------------------------|------------------------------||
-----------------------------|--------------------------5---||