Ludvig Van Bethoven: другие аккорды и тексты

Аккорды и текст: Ludvig Van Bethoven - "Fur Elise (Возвращение к Елизе)"

» Главная
» Аккорды
» Школа игры
» Софт для гитары
» Схемы примочек
» Магазин
» Продам
» Куплю
» Фотографии
» [ne]FORMAT
» Ссылки
» Форум
» Знакомства
» MIDI
» Контакты


»



Fur Elise (Возвращение к Елизе)

Ludvig Van Bethoven

подбор: YogSagot (Kroomgold@inbox.lv)

                        A5                          Am
e:|-0---|-0---0-------|-------------|-------------|---------0---|
B:|---4-|---4---0-3p1-|-------------|-0---------0-|-1---------4-|
G:|-----|-------------|-2---2-----2-|-----1---1---|-----2-------|
D:|-----|-------------|---2-----2---|---2---2-----|---2---2-----|
A:|-----|-------------|-0-----3-----|-------------|-0-----------|
E:|-----|-------------|-------------|-0-----------|-------------|
                  A5
e:|-0---0-------|-------------|-------------|---------0---|
B:|---4---0-3p1-|-------------|-0-------1-0-|-----------4-|
G:|-------------|-2---2-----2-|-----1-------|-2---2-------|
D:|-------------|---2-----2---|---2---2-----|---2---2-----|
A:|-------------|-0-----3-----|-------------|-0-----------|
E:|-------------|-------------|-0-----------|-------------|
                  A5                          Am
e:|-0---0-------|-------------|-------------|---------0---|
B:|---4---0-3p1-|-------------|-0---------0-|-1---------4-|
G:|-------------|-2---2-----2-|-----1---1---|-----2-------|
D:|-------------|---2-----2---|---2---2-----|---2---2-----|
A:|-------------|-0-----3-----|-------------|-0-----------|
E:|-------------|-------------|-0-----------|-------------|
                  A5
e:|-0---0-------|-------------|-------------|-------------|
B:|---4---0-3p1-|-------------|-0-------1-0-|-------0-1h3-|
G:|-------------|-2---2-----2-|-----1-------|-2---2-------|
D:|-------------|---2-----2---|---2---2-----|---2---------|
A:|-------------|-0-----3-----|-------------|-0-----------|
E:|-------------|-------------|-0-----------|-------------|
    C             G             Am                Тянем последнюю Ми сколько хотим
e:|-0-------1-0-|---------0---|-------------|-----0-------|
B:|-----1-------|-3---0-----3-|-1-------3-1-|-0---------4-|
G:|---0---0-----|---0---0-----|-----2-------|-------------|
D:|-------------|-------------|---2---2-----|---2---------|
A:|-3-----------|-------------|-0-----------|-------------|
E:|-------------|-3-----------|-------------|-0-----------|
    Играем произвольное число раз с разными скоростями
    (главное, чтоб звучало красиво)!
e:|-0---0---0---|
B:|---4---4---4-|
G:|-------------|
D:|-------------|
A:|-------------|
E:|-------------|

                  A5                          Меедленно
e:|-0---0-------|-------------|-------------|----------0--|
B:|---4---0-3p1-|-------------|-0-------1-0-|-----1-------|
G:|-------------|-2---2-----2-|-----1-------|-2-----------|
D:|-------------|---2-----2---|---2---2-----|-------------|
A:|-------------|-0-----3-----|-------------|-0-----------|
E:|-------------|-------------|-0-----------|-------------|
    Am (завершающая)
e:|-5-----------|-------------|-------------|-------------|
B:|-5-----------|-------------|-------------|-------------|
G:|-5-----------|-------------|-------------|-------------|
D:|---7---------|-------------|-------------|-------------|
A:|---7---------|-------------|-------------|-------------|
E:|-5-----------|-------------|-------------|-------------|