к/ф "Свадьба в Малиновке": другие аккорды и тексты

Аккорды и текст: к/ф "Свадьба в Малиновке" - "Песня Папандопуло"

» Главная
» Аккорды
» Школа игры
» Софт для гитары
» Схемы примочек
» Магазин
» Продам
» Куплю
» Фотографии
» [ne]FORMAT
» Ссылки
» Форум
» Знакомства
» MIDI
» Контакты


»



Песня Папандопуло

к/ф "Свадьба в Малиновке"


Вступление: Em-4 p.

Em                Em
Hа речном песочке я Марусю встретил -
Am                  B7            Em
В розовых чулочках, талия - в корсете!
Am     Em         B7        Em
Да-да, да-да - в розовых чулочках...
Am     Em       B7       Em
Да-да, да-да, талия - в корсете...

Проигрыш: Am Em B7 Em

Вдруг - патруль, облава. Заштормило море.
До свиданья, пава, я вернусь не скоро!
Фью-фью, фью-фью, до свиданья, пава...
Фью-фью, фью-фью, я вернусь не скоро...

Где же ты, Маруся, с кем теперь гуляешь?
Одного целуешь, а меня кусаешь!
А-тпру, а-тпру, одного целуешь...
А-тпру, а-тпру, а меня кусаешь...

Соло

Куплет:
                                                      
E||--7-8--7--6--7--5--3------|--5--3--2--3--2--0------|
B||--------------------------|------------------------|
G||--------------------------|------------------------|
D||--------------------------|------------------------|
A||--------------------------|------------------------|
E||--------------------------|------------------------|


                                                               
--5--7--10--8--12----------|----------------------------------|
-------------------12------|--12--10-----------------------8--|
---------------------------|----------12--11--12--11-9--------|
---------------------------|----------------------------------|
---------------------------|----------------------------------|
---------------------------|----------------------------------|


                                                                         
---------5--3--------|--7--5--3--2--3-2-0-----3--|--2------5--3------5--|
--7------------------|---------------------------|----------------------|
---------------------|---------------------------|----------------------|
---------------------|---------------------------|----------------------|
---------------------|---------------------------|----------------------|
---------------------|---------------------------|----------------------|


                                                    
--7--5--3--2--3--2-0------|
--------------------------|
--------------------------|
--------------------------|
--------------------------|
--------------------------|
Проигрыш:

E||--5----8----14----12----|
B||------------------------|
G||------------------------|
D||------------------------|
A||------------------------|
E||------------------------|
                                                             
--11----------------------------|--------8----14----12------|
------13--12--10--12-10-12------|--10-------------------13--|
--------------------------------|---------------------------|
--------------------------------|---------------------------|
--------------------------------|---------------------------|
--------------------------------|---------------------------|


                                                    
-------------------------------|------------------||
--12---------------------------|------------------||
------14--12--11--12-11-9------|------------------||
-------------------------------|------------------||
-------------------------------|------------------||
-------------------------------|------------------||