Теплая Трасса: другие аккорды и тексты

Аккорды и текст: Теплая Трасса - "Мертвый мир"

» Главная
» Аккорды
» Школа игры
» Софт для гитары
» Схемы примочек
» Магазин
» Продам
» Куплю
» Фотографии
» [ne]FORMAT
» Ссылки
» Форум
» Знакомства
» MIDI
» Контакты


»



Мертвый мир

Теплая Трасса


Intro & Outro:
   Em              D      ^    ^   C             H7             Em
e|-3-----3-----3---2-----3-2--2-0--0-----0---0----2---------0-2-3-----3----3-
h|---0-----0-----0---3---------------1---------0-(0)--0-2-4-------0-----0----
g|-----0-----0---------2---------------0---0-----(2)----------------0-----0--
d|-----------------0---------------------------------------------------------
a|---------------------------------3--------------2--------------------------
e|-0-------------------------------------------------------------------------

   D             ^  H7     H5
e|-2------3--5--7-7----2-|-----------------------------------
h|(3)-3---3--5--7-7---0--|-----------------------------------
g|(2)---2------------2---|-------0-----------0---------------
d|(0)--------------------|-----4---4-------4---4-------------
a|------------------2----|---2-------2---2-------------------
e|-----------------------|-0-----------0---------------------

Em            D                  C
 До свидания брат до свидания родной
           H7sus4    H7        Em
 Хорошо умирать путеводною звездой
            D                  C
 Хорошо понимать смысл гиблых идей
                H7sus4    H7       Em
 И стоять перед фактом отсутствия дней
             D
  А стрелы Амура
     G               H7sus4  H7     Em
  Вонзаются в письки и продолжают полет
          D         C
    Этот мир    еще мертв
         H7sus4 H7  Em
    Этот мир    еще мертв
             D       G   H7sus4  H7
    Мертвый мир еще мертв

 Невозможно любить тех кто рядом с тобой
 Наблюдает во сне как над призрачной тьмой
 Безымянный творец беспричинно уснул
 Он уже сотворил но еще не вдохнул
  А умный мужчина
  Уверенно входит и так неприкаянно срет
    Этот мир еще мертв
    Этот мир еще мертв
    Мертвый мир еще мертв

   Em       D        C   H7         Em   D        G  H7
e|----------------------------5---------------------------
h|-8-8-8-8--7-7--8-7-5--7-7-7---8-7-5--8-7-7-7--8-7--5----
g|--------------------------------------------------------
d|--

 Это все хорошо все не зря все как есть
 Безысходное дно опаленная шерсть
 Бесполезно любить беспросветную даль
 Дорогие мои мне вас искренне жаль
  Но пальцами в небо
  Упрямые люди лезут угрюмо вперед
    Этот мир еще мертв
    Этот мир еще мертв
    Мертвый мир еще мертв