Тараканы: другие аккорды и тексты

Аккорды и текст: Тараканы - "Дурная башка"

» Главная
» Аккорды
» Школа игры
» Софт для гитары
» Схемы примочек
» Магазин
» Продам
» Куплю
» Фотографии
» [ne]FORMAT
» Ссылки
» Форум
» Знакомства
» MIDI
» Контакты


»



Дурная башка

Тараканы


		C(III)              E(VII)
(1)		Солнцезащитные очки
		                           F(VIII)
		А вместо глаз - одни зрачки
		                     G(X)
		За нахождение в крови
		      G(X) F(VIII) C(III)
		"От ноля   до    пяти"
		Рубашка с длинным рукавом
		Один прозвон - опять облом
		Подальше спрячся от мечты
		Вместо "грамма" - ноль-три

		                Am(V)
Припев:		      Дурная башка
		   F(VIII)    G(X)    E(VII)
		      Ногам покоя не даёт
		      Сегодня, вчера
		      И завтра - целый скучный год

		      Больная среда
		      До добра не доведёт
		      Случится беда
		      И вряд ли кто-нибудь поймёт

		G(X) F(VIII) C(III)

(2)		Вот кто-то гонится за мной
		Двойной прозвон - опять отбой
		С утра я не могу порой
		Вспомнить кто я такой

		Стою на стрелке два часа
		Сырой подъезд и темнота
		От грязной ложки...
		Мой шанс...

		Припев

solo:		    F     F     Am          F     F     Am
		1) --------------------------------------------------
		2) --------------------------------------------------
		3) --------------------------------------------------
		4) -------------------3-2-0--------------------------
		5) ---2-3---2-3-0-2-3---------2-3---2-3-0-2-3-2-0----
		6) -1-----1-----------------1-----1---------------3--

		    F     F     Am          F     F     E
		1) --------------------------------------------------
		2) --------------------------------------------------
		3) --------------------------------------------------
		4) -------------------3-2-0--------------------------
		5) ---2-3---2-3-0-2-3---------2-3---2-3--------------
		6) -1-----1-----------------1-----1------------------

		Припев  } 2 раза

		                Am
		      Дурная башка...