Танцы минус: другие аккорды и тексты

Аккорды и текст: Танцы минус - "Город"

» Главная
» Аккорды
» Школа игры
» Софт для гитары
» Схемы примочек
» Магазин
» Продам
» Куплю
» Фотографии
» [ne]FORMAT
» Ссылки
» Форум
» Знакомства
» MIDI
» Контакты


»



Город

Танцы минус



Dm      B
Я шагаю по проспекту,
Gm         A
По ночному городу.
Я иду потому, что у меня есть ноги,
Я умею ходить и поэтому иду.
Иду навстречу цветным витринам.
Мимо пролетают дорогие лимузины.
В них женщины проносятся с горящими глазами,
Холодными сердцами, золотыми волосами.

Gm              A
Город - сказка, город - мечта.
    Dm                   B
Попадая в его сети, пропадаешь навсегда,
Глотая воздух и простуду сквозняков
                                   Gm A
С запахом бензина и дорогих духов.

Звезд на небе мало, но это не беда,
Здесь почти что в каждом доме есть своя и не одна.
Электричество, газ, телефон, водопровод,
Комунальный рай без хлопот и забот.


Город - сказка, город - мечта.
Попадая в его сети, пропадаешь навсегда,
Глотая воздух и простуду сквозняков
С запахом бензина и дорогих духов.

Дым высоких труб, бег седых облаков
Нам укажет приближение холодных ветров.
Танец солнечных лучей в паутине проводов
Над жестяными крышами обшарпанных домов.
Иду навстречу цветным витринам.
Мимо пролетают дорогие лимузины.
В них женщины проносятся с горящими глазами,
Холодными сердцами, золотыми волосами.

Город - сказка, город - мечта.
Попадая в его сети, пропадаешь навсегда,
Глотая воздух и простуду сквозняков
С запахом бензина и дорогих духов.

Guitar solo:
|----------------------------------------------------------------------------|
|-----------------------10-8-10-8-------------------------10-8-10-8-11-10----|
|9-10-7-----7--9-10-9-7-----------9--9-10-7---7-9-10-9-7---------------------|
|--------7----------------------------------7--------------------------------|
|----------------------------------------------------------------------------|
|----------------------------------------------------------------------------|

|12-10-----12-10-12-10-------------------------------------------------------|
|-------11---------------10-8--10-8-----------------------8----------8-------|
|---------------------------------------9-10-12-10----10--------10---------10|
|------------------------------------10------------12-------12---------12----|
|----------------------------------------------------------------------------|
|----------------------------------------------------------------------------|


|----------------------|
|-----------------10---|
|----------12-10-------|
|------10--------------|
|--12------------------|
|----------------------|