Сплин: другие аккорды и тексты

Аккорды и текст: Сплин - "Остаемся зимовать"

» Главная
» Аккорды
» Школа игры
» Софт для гитары
» Схемы примочек
» Магазин
» Продам
» Куплю
» Фотографии
» [ne]FORMAT
» Ссылки
» Форум
» Знакомства
» MIDI
» Контакты


»



Остаемся зимовать

Сплин


        F*                   
Километры    превратятся в прошествии лет в
C      Dm  
Киноленты,   что лежат на монтажном столе
C      Bb                      (F)  
Континенты   будут им рукоплескать
До восхода   лишь земля обернется опять
Кислорода    хватит всем кто умеет дышать
Год от года - Остаемся зимовать

*Березовский, куплет1:
*Почти все, кроме аккордов на октаву ниже, но для акустики так удобней
e |----6-5-----------------0--|
B |------------------------1--|
G |------------------------0--| 
D |------------------------2--| 
A |------------------------3--|
E |---------------------------|
Километры,         превратятся в прошествии лет в 

e |----3-1------------------0--|
B |-------------------------1--|
G |-------------------------0--| 
D |-------------------------2--| 
A |-------------------------3--|
E |----------------------------|
Киноленты,          что лежат на монтажном столе

e |----0----------------5-|
B |------3--------------6-|
G |---------------------5-| 
D |-----------------------| 
A |-----------------------|
E |-----------------------|
Континенты       будут им рукоплескать
*и т.д

Dm     Bb        Dm  
   Остаемся зимовать
       Bb        G                 Dm
   Остаемся зимовать - Вода замерзла
          G   
   Перебьемся!  

*Березовский в припеве:
e |-----------------------|
B |6666666--88/99-3333333/| X2
G |-----------------------|
*а потом так: (...вать - вода замерзла...)
e |--------------------|
B |/8~--6~--8~--(11~)--| 
G |--------------------|
*Нота в скобках в первом припеве не играется

И с приветом,   и спасибо всем тем кто мигал
Дальним светом  принимая ответный сигнал
Этим летом      и так любит рисковать
Ртуть упала     и листва за окном шелестеть
Перестала       и вдвоем под одним шерстенным
Одеялом         Остаемся зимовать

*Березовский, куплет2 примерно так:
*(постарался написать так, чтобы можно было на акустике сыграть)

e |-----65---------65-------|
B |--------6-6--------6-6---|
G |---------5--5-------5--5-| 
D |-------------------------| 
A |-------------------------|
E |-------------------------|
И с приветом,   ……….

e |------31--------31-------|
B |---------3-3-------3-3---|
G |----------2--2------2--2-| 
D |-------------------------| 
A |-------------------------|
E |-------------------------|
Дальним светом  ……..

e |-----------------------|
B |----53--------53-------|
G |-------3-3-------3-3---| 
D |--------3--3------3--3-| 
A |-----------------------|
E |-----------------------|
Этим летом ……………
*На самом деле чуть по другому, но все это близко к импровизации 
*поэтому я особенно не парился

Припев
Зимовать
Зимовать
Зимовать
*Рифф на "Зимовать    Зимовать"
e |-3--1--0--1-0|
B |-3-----------|
G |-2-----------|
D |-0-----------| 
A |-------------|
E |-------------|

*Третий куплет в альбомной версии - все тоже самое,
*но в другой тональности, в до-мажоре,
*т.е C  GAm  GF  и т.д 
*Соответсвенно рифф на "зимовать зимовать" можно сыграть так:
e |-------------|
B |-3--1--0--1-0|
G |-2-----------|
D |-2-----------| 
A |-0-----------|
E |-------------|
*Но лучше не партись с переходом и играйте как и первые два;
*Насколько я помню, даже Саня играя ее на акустике некуда не переходил

Дальним странам, с головой уходящим в песок 
Караванам     никогда не прочесть этих строк
Даже странно,  я не знаю что сказать
Очень скоро, мы исчезнем с экранов цветных
Мониторов      из подъезда увозят кого-то на скорой
Остаемся рисковать   
  
   F*
e |*(0)|   
B |1-|   
G |2-|   
D |3-|   
A |0-|    
E |*-|