Сплин: другие аккорды и тексты

Аккорды и текст: Сплин - "Линия жизни"

» Главная
» Аккорды
» Школа игры
» Софт для гитары
» Схемы примочек
» Магазин
» Продам
» Куплю
» Фотографии
» [ne]FORMAT
» Ссылки
» Форум
» Знакомства
» MIDI
» Контакты


»



Линия жизни

Сплин



Рифф1
e |0-0-2-0-3-3-3-3-3-3-3-3...|
B |0-0-0-0-0-0-0-0-0-0-0-0...|
G |--------------------------|
D |--------------------------| 
A |--------------------------|
E |--------------------------|

Рифф2 (только в начале)
e |-------7---5---3--|
B |--0-----(0)-(0)---|
G |------------------|
D |------------------| 
A |------------------|
E |------------------|

Рифф2а
e |-------5---3---2--|
B |--0-----(0)-(0)---|
G |------------------|
D |------------------| 
A |------------------|
E |------------------|

Начало:
Рифф1+Рифф2

Рифф1
Мы легли на дно 
Рифф1
Мы зажгли огни 
Рифф1(и до конца строки играет последние ноты)
Во Вселенной только мы одни 

Рифф3
e |2-2-2-2-2-2-2-2-5-5-5-5-5-5-5-5-|
B |0-0-0-0-0-0-0-0-0-0-0-0-0-0-0-0-|
G |--------------------------------|
D |--------------------------------| 
A |--------------------------------|
E |--------------------------------|
 
Рифф3 + Рифф2а
Гни свою линию 
Гни свою линию 
Гни свою линию 

Рифф4(Березовский)
e |3-3-3-3-3-3-3-3-3-3-3-3-3-3-3-3-|
B |0-0-0-0-0-0-0-0-0-0-0-0-0-0-0-0-|
G |--------------------------------|
D |--------------------------------| 
A |--------------------------------|
E |--------------------------------|

Рифф5
e |7-7-7-7-7-7-7-7|
B |0-0-0-0-0-0-0-0|
G |---------------|
D |---------------| 
A |---------------|
E |---------------|

\\Березовский играет вариацию риффа2, выглядит примерно так:

e |-------7---5---3---2---5-----5---3---2---3---5|
B |--0-----(0)-(0)-(0)-(0)-(0)--(0)--(0)-(0)-(0)-|
G |----------------------------------------------|
D |----------------------------------------------| 
A |----------------------------------------------|
E |----------------------------------------------|

\\И после "нечего ловить" примерно так:
e |---7---5---7---5-|
B |(0)-(0)-(0)-(0)--|
\\Но лучше аккомпанировать себе аккордами

Рифф4 + Em 
Горят огни Сверкают звезды 
Рифф3 +   D              B7 
Все так сложно Все так просто 
Рифф4 Em
Мы ушли в открытый Космос 
Рифф3   D           B7     G + рифф5 
В этом мире больше нечего ловить 

Гни свою линию Горят а- 
Гни свою линию Горят а- 
Гни свою линию 
Горят огни 

\\Соло Березовского:
e |3-2-0-2-0---|3-2-0-2-7---|3-2-0-2-3-2-0---0|
B |------------|------------|--------------4--|
G |------------|------------|-----------------|
\\Все это повторяется еще раз, после чего: 
e |0000000/33333333/55555555/88888888/|
B |-----------------------------------|
G |-----------------------------------|

e |/1010101010101010/1212121212121212\|
B |-----------------------------------|
G |-----------------------------------|

Мы легли на дно 
Мы зажгли огни 
Во Вселенной только мы одни 
Гни свою линию  
Гни свою линию  
Гни свою линию 
Горят огни… 

   Em
e |3-|   
B |0-|   
G |0-|   
D |2-|   
A |2-|    
E |0-|    
Если аккорд Еm брать вот так, получится еще круче.

З.Ы. Вообще это не для акустики, и лучше если будет две гитары - один играет соло, второй - аккорды.