Сплин: другие аккорды и тексты

Аккорды и текст: Сплин - "Йог спокоен"

» Главная
» Аккорды
» Школа игры
» Софт для гитары
» Схемы примочек
» Магазин
» Продам
» Куплю
» Фотографии
» [ne]FORMAT
» Ссылки
» Форум
» Знакомства
» MIDI
» Контакты


»



Йог спокоен

Сплин



В начале есть какой-то проигрыш:    
   G
4|-------------------5-3--|   
5|-----3-5-3---3----------|     
6|-3-6-------6---6-3------|     
   G
4|------------------------|   
5|-----3-5-3---3----------|     
6|-3-6-------6---6--------|     

По сути эта штука идёт на протяжении всей песни,
только её концовочка немного меняется.   

   G                      G
 След останется и как бы ты не заметал.
 Люди носятся по свету, гибнут за металл.      

        

Припев:    
   F
  Жизнь идёт, йог спокоен,
   C
  А жизнь идёт, йог спокоен,
   Dm                                G(Проигрыш1)
  Жизнь идёт, йог спокоен как всегдаа-а-а 
  
 Тридцать лет прошли под кайфом, целых тридцать лет,
 И ёще три года с лишним, где мой пистолет??? 
 
Припев: 

Проигрыш:  (Много раз)
   G
2|---1-3-3-3-1-3-3-3-1-3-3-3\6-5-3--|

2|-1-1-3-3-3-1-3-3-3-1-3-3-1--0--2--|

Припев:    
   C
  Жизнь идёт, йог спокоен,
   G
  А жизнь идёт, йог спокоен,
   Am                              D
  Жизнь идёт, йог спокоен как всегдаа-а-а