Сплин: другие аккорды и тексты

Табулатура: Сплин - "Бони и Клайд"

» Главная
» Аккорды
» Школа игры
» Софт для гитары
» Схемы примочек
» Магазин
» Продам
» Куплю
» Фотографии
» [ne]FORMAT
» Ссылки
» Форум
» Знакомства
» MIDI
» Контакты


»



Бони и Клайд

Сплин

подбор: DouBle, email unitboxxx@mail.ru

Подбор-Double
Вступление:
D

E-----------\-------------0----------------0---------\
B-----------\-------3----------3-------3--------3---\
G-----------\----------2----------2----------2-----2\
D------0--3\--0-------------------------------------\
A---3-------\----------------------------------------\
E------------\----------------------------------------\

E-------------0----------------0---------\
B-------3----------3-------3--------3---\
G----------2----------2----------2-----2\
D--0-------------------------------------\
A----------------------------------------\
E----------------------------------------\
C                                  Am

E---------0-------------------0----------\
B---------5-----------------------1------\
G--------------5---------------------2---\
D-----5-----------5-------2--------------\
A--3-------------------0-----------------\
E-----------------------------------------\

E----------------------------------------\
B-------8--6--5--6----8--6--5--6-------\
G-------7--7--7--7----7--7--7--7-------\
D--0-------------------------------------\
A----------------------------------------\
E----------------------------------------\

Как играется со словами, я ещё не подобрал, 
но если не терпится, петь можно под это:

E------------0---------------------0-----\
B------------5---------------------------\
G--------5--------5------------2------2---\
D-----5--------5-----5------2-------2--2-\
A--3---------------------0-----------------\
E-----------------------------------------\

E--------------0------------\
B-----------3---------3-------\
G-------2---------2------2---\     2 раза
D--0----------------------\
A--------------------------\
E--------------------------\

Вопросы и поправления(если есть)
отправляйте на unitboxxx@mail.ru