Сектор Газа: другие аккорды и тексты

Аккорды и текст: Сектор Газа - ""Вторая ария Ивана (Еду бабу выручать...)""

» Главная
» Аккорды
» Школа игры
» Софт для гитары
» Схемы примочек
» Магазин
» Продам
» Куплю
» Фотографии
» [ne]FORMAT
» Ссылки
» Форум
» Знакомства
» MIDI
» Контакты


»



"Вторая ария Ивана (Еду бабу выручать...)"

Сектор Газа


     Em          Am              Em              H               Em
  H|-0-1-3-3-1-0-------0-1-1-0---------------------------------------|
  G|-------------2---2---------2-0---0-2-4-4-2-0-------0-2-2-0-------|
  D|---------------------------------------------4---4---------4-2---|


       Em
  Еду бабу выручать,
                   Am
  Эх, устал, ебёна мать,
                    Em
  От проклятого седла
          H          Em
  Крыша съехала с ебла.

  Этот гад и чмо Кощей
  Hахватал себе блядей,
  И мою супругу он
  Утащил, такой гондон.

  Вот достану кладенец,
  И тогда ему пиздец,
  Отрублю ему муде
  И проткну его везде.

  Эх, добраться бы скорей,
  Жопу ломит от езды,
  Берегись, мудак Кощей,
  Эх, получишь ты пизды.


     Em                          Am              Em      H       Em
  H|-----------------0-1-3-3-1-0-------0-1-1-0-----------------------|
  G|-----0-0---------------------2---2---------2-0-----0-2-2-0-------|
  D|-2-4-----4-2-2-----------------------------------4---------4-2---|


  [Em -> F#m]


       F#m
  Помоги же мне, господь,
                    Hm
  Кошу, падлу, заколоть,
                     F#m
  И бессмертному козлу
       C#           F#m
  Помоги дать по еблу.


     F#m                         Hm              F#m     C#      F#m
  H|-----------------2-3-5-5-3-2-0---0-2-3-3-2-0---------------------|
  G|---1-2-2-1-----------------------------------2---1-2-4-4-2-1-----|
  D|-4---------4-4-----------------------------------------------4---|