Приключения Электроников : другие аккорды и тексты

Аккорды и текст: Приключения Электроников - "До свидания, Москва"

» Главная
» Аккорды
» Школа игры
» Софт для гитары
» Схемы примочек
» Магазин
» Продам
» Куплю
» Фотографии
» [ne]FORMAT
» Ссылки
» Форум
» Знакомства
» MIDI
» Контакты


»



До свидания, Москва

Приключения Электроников


Am  
На трибунах становится тише,  
      A7(C#)        Dm  
Тает быстрое время чудес. 
                          E      F  
До свиданья, наш ласковый Ми-и-и-ша,  
      Dm            E         Am  
Возвращайся в свой сказочный лес. 
 
Не грусти, улыбнись на прощанье,  
Вспоминай эти дни, вспоминай.  
Пожелай исполненья желаний,  
Новой встречи нам всем пожелай. 
 
(Проигрыш)  
Тут тоже соло саксофона исполняется на гитаре.  
 
E|----------------------------------------|  
H|--------------------------10-8----------|  
G|--9-10-12----9-------9-10------10-10-9--|  
D|----------10---12-12--------------------|  
A|----------------------------------------|  
E|----------------------------------------|  
 
 
E|----------------------------------------|  
H|----------13-12-10-12-10-8-10-8---------|  
G|--9-10-12-----------------------10------|  
D|-----------------------------------9-10-|  
A|----------------------------------------|  
E|----------------------------------------| 
 
 
Пожелаем друг другу успеха,  
И добра, и любви без конца.  
Олимпийское звонкое эхо  
Остается в стихах и сердцах.  
 
 
До свиданья, Москва, до свиданья,  
Олимпийская сказка прощай.  
Пожелай исполненья желаний, 
Новой встречи друзьям пожелай.  
 
     C         G  
Расстаются друзья,  
     G7            C  
Остается в сердце нежность.  
         C    F     E D  
Будем песню беречь,  
       C          G7      C  
До свиданья, до новых встреч.  
Будем песню беречь,  
До свиданья, до новых встреч.  
 
(C#)- это во втором куплете, во второй части Сид играет на басу именно эту ноту  
 



Основная часть:  
 
E----------0\'-1-0-8-7-5\'-8-7-5-3-1-0-3-1--5-5-1--------1-0-5-8\'-7-5-3-5-3-1-0-  
H--0-1\'-1-3------------------------------3\'----3-0-1\'-3-----------------------  
G-2---------------------------------------------------------------------------2--
D--------------------------------------------------------------------------------
A--------------------------------------------------------------------------------
E--------------------------------------------------------------------------------

Припев: 
 
E-0-1-3---------0-1-5\'3-1-1----0-1-3\'-8-7-5\'-7-5-3-5-3-1-0--  
H------1\'-0-3\'-3-----------3(5)------------------------------
G----------------------------------------------------------2---
D--------------------------------------------------------------
A--------------------------------------------------------------
E-------------------------------------------------------------- 
 
P.S.Значок(\')означает небольшую паузу(несколько секунд).