Океан Эльзи: другие аккорды и тексты

Аккорды и текст: Океан Эльзи - "Там, де нас нема"

» Главная
» Аккорды
» Школа игры
» Софт для гитары
» Схемы примочек
» Магазин
» Продам
» Куплю
» Фотографии
» [ne]FORMAT
» Ссылки
» Форум
» Знакомства
» MIDI
» Контакты


»



Там, де нас нема

Океан Эльзи


Вст: Em D C# C H

Em                    A             C
Там, там, там, т?льки там, де нас нема
        H       Em
Там не пада? зима
Т?льки там, т?льки там де нас нема
З неба
Там, там, там, т?льки там, де нас нема
Там не пада? вона
Т?льки там, т?льки там де нас нема
Й не треба
Там, там, там, т?льки там, де нас нема
Ходять вс? на головах
Т?льки там, т?льки там де нас нема
Ходять
Там, там, там, т?льки там, де нас нема
Ходять вс? на головах
? питаються у нас
Де ви ??
Де ви ??

         Em A      C   H
Скаж? мен?, чому не можу
        C Am       H7
Забути те, чого нема?
         Em A      C   H
Скаж? мен?, чому не можу
         Em A
Забути те, що
 C         H7     Em
Те, що навколо зима.

Там, там, там, т?льки там, де нас нема
Там не пада? зима
Т?льки там, т?льки там де нас нема
Люди
Там, там, там, т?льки там, де нас нема
Там тече жива вода
Т?льки там, т?льки там де нас нема
Всюди
Там, там, там, т?льки там, де нас нема
Менше льоду, н?ж тепла
Т?льки там, т?льки там де нас нема
Льоду
Там, там, там, т?льки там, де нас нема
Ходять вс? на головах
? тече жива вода
Hе для нас.
Скаж? мен?, чому не можу
Забути те, чого нема?
Скаж? мен?, чому не можу
Забути те, що
Те, що навколо зима.


                                                 
3|----------------4-2-2------|----------------4-2-2-----|----------------4-2-2---------------|
4|-2--2-4-5--------------4-4-|-5--2-4-5-------------4-4-|-5--2-4-5-------------4-4-5-4-5-4-5-|
5|-----------3--3------------|-----------3--3-----------|-----------3--3---------------------|

1|--------------------------|
2|--------------------------|
3|--------------------------|
4|-2--2-4-5---------------2-|
5|-----------3--3-2/3---2---|
6|--------------------2-----|