Ночные Санйперы: другие аккорды и тексты

Аккорды и текст: Ночные Санйперы - "Так начинался день"

» Главная
» Аккорды
» Школа игры
» Софт для гитары
» Схемы примочек
» Магазин
» Продам
» Куплю
» Фотографии
» [ne]FORMAT
» Ссылки
» Форум
» Знакомства
» MIDI
» Контакты


»



Так начинался день

Ночные Санйперы


Intro:

B ---------------------------------
G ---------------------------------
D -----2-----3-----2-----3-2-0-----
A ---0-----0-----0-----0-------3---
E ---------------------------------

B ---------------------------------
G ---------------------------------
D ---------------------------------
A -----2-----3-----5-----2h3-2h3---
E ---0-----0-----0-----0-----------

B ---------------------------------
G ---------------------------------
D -----2-----3-----2-----3-2-0-----
A ---0-----0-----0-----0-------3---
E ---------------------------------

B ---------------------------------
G ---------------------------------
D ---------------------------------
A -----2-----3/5-----5/7----7------
E ---0-----0-------0------0--------

B -----0-----1-----3-----5-3-1-3---
G ---------------------------------
D ---0-----0-----0-----0-----------
A ---------------------------------
E ---------------------------------

B ---------------------------------
G ---------------------------------
D -----2-----3-----5-----2h3-2h3---
A ---0-----0-----0-----0-----------
E ---------------------------------

B ---------------------------------
G ---------------------------------
D ---------------------------------
A -----2-----3/5-----5/7----7---9--
E ---0-----0-------0------0---0----

Am
Разбуженный лед плакал на понедельник
Hm7-5
к началу прихода размытых дверей.
Am
Кто-то влезал тихо на подоконник
Hm7-5
и с грустью смотрел на счастливых людей.
E7(VII)
Цвет троекратно не предсказуем
Am(V)
на перекрестках асфальтовых лент.
E7(VII)
Погоня за страхом быть не убитым,
Am(V)           N.C.                    Am/Asus2 Dm Am/Asus2 Dm
входит в привычку за долгостью лет.

N.C.           Am/Asus2
Так начинался день...

А город крошился на черном и белом,
пуская в себя сок отравленных дней.
А небо забыло свою отчужденность,
бросая к ногам трафареты теней.
Она знает то, что не знает реальность.
Она видит там, где не видят огни.
Ее серебро на мою безымянность
легло, когда мы остались одни.

Так начинался день...

Am(V) [далее так же, как и в первом куплете]
А время текло из-под пальцев на струнах,
сплетая в слова смысл прожитых лет.
А кроны деревьев ссыпались на землю,
касаясь листвою твоих эполет.
Она никогда не узнает о камне,
лежащем на дне прозрачной реки,
И влажный овал ее облака ночи
не станет светлей в квадрате любви.

Так начинался день...

repeat intro

Светлана Сурганова
январь 1995