Неудавшийся Ex-periment: другие аккорды и тексты

Аккорды и текст: Неудавшийся Ex-periment - "Тупая Свинья"

» Главная
» Аккорды
» Школа игры
» Софт для гитары
» Схемы примочек
» Магазин
» Продам
» Куплю
» Фотографии
» [ne]FORMAT
» Ссылки
» Форум
» Знакомства
» MIDI
» Контакты


»



Тупая Свинья

(альбом "Тупая Свинья")

Неудавшийся Ex-periment

год: 2005

pm-----|  Глушение кистью правой руки в районе струнодержателя
 
 
 
Bass:
 
|---------------------------------------------------------------|
|---------------------------------------------------------------|
|-----------7-7-7-7-7-0-3-3-3-3-3-0-----------------------------|
|-5-5-5-5-5-------------------------3-3-3-3-3-------------------|
 
 
Gitair1(С эффектом "Дисторшн")играется с таким же боем  как бас 
 
 Riff 1|Riff 2|Riff 3|Riff 4
1--x---|--x---|--x---|--x---|
2--x---|--x---|--x---|--x---|
3--x---|--9---|--5---|--x---|
4--7---|--9---|--5---|--5---|
5--7---|--7---|--3---|--5---|
6--5---|------|------|--3---|
 
 
 
 
Gitair2(C эффектом .Дисторшн.)бой меняется 
 
Riff 1|Riff 2|Riff 3|Riff 4
pm-----|------|------|------|  
1--x---|--x---|--x---|--x---|
2--x---|--x---|--x---|--x---|
3--x---|--9---|--5---|--x---|
4--7---|--9---|--5---|--5---|
5--7---|--7---|--3---|--5---|
6--5---|------|------|--3---|
 
Куплет: gitair 1
 
Riff 1: Я распят на кресте огня
Riff 2: Красное пламя затмило меня
Riff 3: Черный дым мне режет глаза
Riff 4: Шум толпы оглушает меня
Gitair 2
Riff 1: Ни чего не происходит
Riff 2: Просто я превязан к столбу
Riff 3: Интерес во мне находят
Riff 4: Инквизиторы-Я в огне!
 
Припев:
 
Путь на верх открыт для меня
Я убит как тупая свинья
Яяя-Свиньяяя!
 
Куплет:
 
С неба ярко светит луна
путь на верх освещяет она
Люди проклели меня 
Забывая про себя! ХОЙ!!!!
 
(Проигрыш на басу без слов)