Неудавшийся Ex-periment: другие аккорды и тексты

Аккорды и текст: Неудавшийся Ex-periment - "Последний Час"

» Главная
» Аккорды
» Школа игры
» Софт для гитары
» Схемы примочек
» Магазин
» Продам
» Куплю
» Фотографии
» [ne]FORMAT
» Ссылки
» Форум
» Знакомства
» MIDI
» Контакты


»



Последний Час

(альбом "Тупая Свинья")

Неудавшийся Ex-periment

год: 2005

Intro 

 

 Riff 1|Riff 2 |Riff 3| Riff 4

1--x---|--x-x--|--x---|--x----|

2--x---|--x-x--|--x---|--x----|

3--x---|--x-x--|--x---|--x----|

4--x---|--x-x--|--x---|--x----|

5--11--|--6-7--|--9---|--5-4--|

6--9---|--4-5--|--7---|--3-2--|

 

 

Gitair

 

 Riff 1|Riff 2 |Riff 3| Riff 4

1--x---|--x-x--|--x---|--x----|

2--x---|--x-x--|--x---|--x----|

3--x---|--x-x--|--x---|--x----|

4--9---|--4-5--|--7---|--3-2--|

5--9---|--4-5--|--7---|--3-2--|

6--7---|--2-3--|--5---|--1-0--|

 

Припев 

 

 Riff 1|Riff 2|Riff 3|Riff 4|Riff 5|

1--x---|--x---|--x---|--x---|--x---|

2--x---|--x---|--x---|--x---|--x---|

3--x---|--7---|--x---|--5---|--4---|

4--9---|--7---|--7---|--5---|--4---|

5--9---|--5---|--7---|--3---|--2---|

6--7---|------|--5---|------|------|

 

 

Сегодня ты прожил последний час

В гробу лежишь ты сейчас

Земля засыпана уже 

И ты лежишь в темноте!

 

Сегодня все плачут и пьют

К могиле твоей цветы несут 

И смерть летит за спиной

И мы попрощялись с тобой!

 

припев:

Смерть заберёт тебя с собой

И мы попрощяемся с тобой 

А когда наступит мой черёд

Смерть и меня с собой возьмёт!

 

(проигрыш припева без слов)

 

Но вот настал и мой черёд 

И смерть меня с собой завёт

и я иду уже за ней

Скорей идём мы за НЕЙ!

 

припев...

 

(проигрыш припева без слов)

 

припев...