Nautilus Pompilius: другие аккорды и тексты

Аккорды и текст: Nautilus Pompilius - "Hа берегу тихой реки"

» Главная
» Аккорды
» Школа игры
» Софт для гитары
» Схемы примочек
» Магазин
» Продам
» Куплю
» Фотографии
» [ne]FORMAT
» Ссылки
» Форум
» Знакомства
» MIDI
» Контакты


»



Hа берегу тихой реки

Nautilus Pompilius

слова: Бутусов

     1 |-----13-----12-----10----------------10-|--------------------|
     2 |--10-----10-----10--------11p10-8-10----|--8-----------------|
GT1  3 |*---------------------------------------|--------------------|
     4 |*---------------------------------------|--------------------|
     5 |----------------------------------------|--------------------|
     6 |----------------------------------------|--------------------|

     1 |---------------------------0-1--0-------|--------------------|
     2 |--1--3-------------------3---------3--1-|--------------------|
GT2  3 |*---------------------2-----------------|--2-----------------|
     4 |*---------------------------------------|--------------------|
     5 |----------------------------------------|--------------------|
     6 |----------------------------------------|--------------------|

     1 |--6------5-----3---1--3h5p3p1-|-------------------10-12------|
     2 |-------3-----3----------------|--3-------------10------------|
     3 |-----3-----3------------------|-----------9/10--------------*|
     4 |------------------------------|-----------------------------*|
     5 |------------------------------|------------------------------|
     6 |------------------------------|------------------------------|

     1 |----0----1----3------1-0-1-0--|---------1---------1----------|
     2 |----------------------------1-|--3-------------1-----3-------|
     3 |--3----3----3-----------------|-----------0p2---------------*|
     4 |------------------------------|-----------------------------*|
     5 |------------------------------|------------------------------|
     6 |------------------------------|------------------------------|

     1 |---------------10-12-10----------------|
     2 |--3---------10----------10-------------|
     3 |-------9/10----------------10----------|
     4 |------------------------------12-------|
     5 |---------------------------------------|
     6 |---------------------------------------|

     1 |---------------------------5--6--5-----|
     2 |--3------------------5--6----------6-5-|
     3 |---------------------------------------|
     4 |---------------------------------------|
     5 |---------------------------------------|
     6 |---------------------------------------|


Dm
Мы будем жить с тобой
Am
В маленькой хижине
Gm      Am      Dm
На берегу очень тихой реки.
Dm                         Am
Никто и никогда - поверь - не будет обиженным
    Gm         Am     Dm
На то, что когда-то покинул пески.


 B     F       Gm      D
На берегу очень дикой реки,
 B     F      Gm      D
На берегу этой тихой реки,
 B         F         Dm      D
В дебрях чужих, у священной воды,
   Gm      C       F     A
В теплых лесах безымянной реки.


Движенья твои очень скоро станут плавными,
Походка и жесты - осторожны и легки.
Никто и никогда не вспомнит самого главного
У безмятежной и медленной реки.


На берегу очень дикой реки,
На берегу этой тихой реки,
В дебрях чужих, у священной воды,
В теплых лесах безымянной реки.


И если когда-нибудь случится беда:
Найди верный камень там, где скалы у реки.
Прочти то, что высекла холодная вода,
Но ты эту тайну навсегда сбереги.


На берегу очень дикой реки,
На берегу этой тихой реки,
В дебрях чужих, у священной воды,
В теплых лесах безымянной реки.