Nautilus Pompilius: другие аккорды и тексты

Аккорды и текст: Nautilus Pompilius - "Крылья"

» Главная
» Аккорды
» Школа игры
» Софт для гитары
» Схемы примочек
» Магазин
» Продам
» Куплю
» Фотографии
» [ne]FORMAT
» Ссылки
» Форум
» Знакомства
» MIDI
» Контакты


»



Крылья

Nautilus Pompilius



Em   H7  Am   H7
Em   H7  Am   H7

 Em                            H7
Ты снимаешь вечернее платье, стоя лицом к стене,
   Am                    H7
И вижу свежие шрамы на гладкой, как бархат, спине.
Мне хочется плакать от боли или забыться во сне.
Где твои крыльа которые так нравились мне?

         F        Em      F                Em
       Где твои крылья которые нравились мне?
         D        Em      D                Em
       Где твои крылья которые нравились мне?


Раньше у нас было время, теперь у нас есть дела
Доказывать, что сильный жрет слабых, доказывать, что сажа бела.
Мы все потеряли что-то на этой безумной войне.
Кстати, где твои крылья, которые нравились мне?

        Где твои крылья, которые нравились мне?
        Где твои крылья, которые нравились мне?

Я не спрашиваю, сколько у тебя денег, не спрашиваю, сколько мужей.
Я вижу, ты боишься открытых окон и верхних этажей.
И если завтра начнется пожар, и все здание будет в огне,
Мы погибнем без этих крыльев, которые нравились мне.

        Где твои крылья, которые нравились мне?
        Где твои крылья, которые нравились мне?


     Крылья (табулатуры)

1 ---7--5--3--2--5--3--2--2--5--3--2--0--------------------------------
2 ----5--5--5--5--4--4--4--4--5--5--5--5-4---3-4-------------------------
3 -----4--4--4--4--4--4--4--4--5--5--5--5-4-5-54--------------------------
4 -----------------------------------------4---4-----------------------------
5 -------------------------------------------------------------------------
6 -------------------------------------------------------------------------
Это куплет (2 раза)

----3--3--3--3--3--3--3--3--2--2--3--3--2--2323----------------------------
-----5--5--5--5--5--5--5--5--1--1--5--5--1----5----------------------------
------5--5--4--4--5--5--4--4--2--2--4--4--2---4----------------------------




Крылья (табулатуры) II
Подбирал сам, партия Бутусова с "Аккустики". Уверен процентов на 70 :)))

1 ---7--5--3--2--5--3--2--2--5--3--2--0--------------------------------
2 ----5--5--5--5--4--4--4--4--5--5--5--5-4---3-4-------------------------
3 -----4--4--4--4--4--4--4--4--5--5--5--5-4-5-54--------------------------
4 -----------------------------------------4---4-----------------------------
5 -------------------------------------------------------------------------
6 -------------------------------------------------------------------------
Это куплет (2 раза)

----3--3--3--3--3--3--3--3--2--2--3--3--2--2323----------------------------
-----5--5--5--5--5--5--5--5--1--1--5--5--1----5----------------------------
------5--5--4--4--5--5--4--4--2--2--4--4--2---4----------------------------