Nautilus Pompilius: другие аккорды и тексты

Аккорды и текст: Nautilus Pompilius - "Хлоп-хлоп"

» Главная
» Аккорды
» Школа игры
» Софт для гитары
» Схемы примочек
» Магазин
» Продам
» Куплю
» Фотографии
» [ne]FORMAT
» Ссылки
» Форум
» Знакомства
» MIDI
» Контакты


»



Хлоп-хлоп

Nautilus Pompilius



1 ------------------------------------------------------------------
2 -----1--------------------------------1---------------------------
3 -2-2---0-------2---------2-----1--2-2---0-------2---------2-----1-
4 ---------3-0-3---0-0-3-2---2-4------------3-0-3---0-0-3-2---2-4---
5 ------------------------------------------------------------------
6 ------------------------------------------------------------------

1 ------------------------------------------------------------------
2 -----1--------------------------------1---------------------------
3 -2-2---0-------2---------2-----1--2-2---0-------2---------2-----1-
4 ---------3-0-3---0-0-3-2---2-4------------3-0-3---0-0-3-2---2-4---
5 ------------------------------------------------------------------
6 ------------------------------------------------------------------

1 ------------------------------------------------------------------
2 -------------------------------------------0---------0-1-0--------
3 -----2-3-----2-2-3-----1-2-----1-1-2-----3-------3-3-------2-0----
4 -2-3-----2-3-------1-2-----1-2-------2-3-----2-3---------------3--
5 ------------------------------------------------------------------
6 ------------------------------------------------------------------

1 ------------------------------------------------------------------
2 -------------------------------------------------0---------0-1-0-
3 -----------2-3-----2-2-3-----1-2-----1-1-2-----3-------3-3-------
4 -2-0---2-3-----2-3-------1-2-----1-2-------2-3-----2-3-----------
5 -----3-----------------------------------------------------------
6 -----------------------------------------------------------------
        E
1 ----------------
2 ----------------               /\
3 -2-0------------        ^     /  \
4 -----3-2-0---2--       /_\   /____\
5 -----------3-2--  a-A-/   \ /      \
6 ----------------



Am         F
нас выращивали денно
Dm        Am
мы гороховые зерна
Am             F
нас теперь собрали вместе
Dm             Am
можно брать и можно есть
     Dm            Am
но знайте и запоминайте:
E                Am
мы ребята не зазнайки
Dm                   Am
нас растят и нас же сушат
     E                   Am    E
не для того чтоб только кушать

Am            F
из нас выращивают смену
  Dm           Am
для того чтоб бить об стену
Am         F
вас отваривали в супе
  Dm         Am    E
съели вас теперь вы трупы


кто сказал что бесполезно
биться головой о стену?
хлоп на лоб глаза полезли
лоб становится кременным

зерна отольются в пули
пули отольются в гири
таким ударным инструментом
мы пробьем все стены в мире

с нас теперь не сваришь кашу
стали сталью мышцы наши
тренируйся лбом о стену
вырастим крутую смену!

обращайтесь гири в камни
камни обращайтесь в стены
стены ограждают поле
в поле зреет урожай!

здесь выращивают денно
ах гороховые зерна
собирают зерна вместе
можно брать и можно есть их

хвать летит над полем семя
здраствуй нынешнее племя
хлоп стучит горох о стену
вот мы вырастили смену

зерна отольются в пули
пули отольются в гири
таким ударным инструментом
мы пробьем все стены в мире
обращайтесь гири в камни
камни обращайтесь в стены
стены ограждают поле
в поле зреет урожа-я-я-я-я-я-я-я-яй...

Бум- ага, Бум- ага
Бум- ага, Бум- ага
ХЛОП !