Nautilus Pompilius: другие аккорды и тексты

Аккорды и текст: Nautilus Pompilius - "Берег"

» Главная
» Аккорды
» Школа игры
» Софт для гитары
» Схемы примочек
» Магазин
» Продам
» Куплю
» Фотографии
» [ne]FORMAT
» Ссылки
» Форум
» Знакомства
» MIDI
» Контакты


»



Берег

Nautilus Pompilius

слова: В. Бутусов


1|-0-0-----0-0---0-0-----3-3-1-1---0-0-----0-0---0-0-------------|
2|-----3-3-----3-----3-3---------------3-3-----3-----3-3-0-0-1-1-|
3|---------------------------------------------------------------|

1|-----------------------0-0-------------------------------------|
2|-3-3-1-1-3-3-1-3-3-1-1-----3-3-1-1-----1-1-----3-3-1-1-3-3-1-1-|
3|-----------------------------------2-2-----2-2-----------------|

   Am                G      1000xx
К берегу спешат пароходы,
   Am                   G
К берегу спешат поезда,
       Dm
Но закрыты все замки и засовы -
    F                 E  E7
На берег наступает вода.

Берег - это медленная птица,
Берег - это пленный океан,
Берег - это каменное сердце,
Берег - это чья-то тюрьма.

        C                     G
  И когда на берег хлынет волна
        Am                   E
  И застынет на один только миг -
         F                   C
  На земле уже случиться война
       Dm                  Am
  О которой мы узнаем из книг.

1|---------------------------------------------|
2|---------------------------------------------|
3|---------------------------------------------|
4|-------0-2---2-0-2-------------0-2-2-5-3-2---|
5|-0-2-3-------------0-----0-2-3---------------|
6|---------------------------------------------|

Лязгнут золотые ворота
Чей-то голос скажет: "Лети!"
Надпись на дверях туалета:
"Будешь на Земле - заходи".

Звездочка блеснет у порога -
Догадайся, сколько ей лет?
Выйдешь на пустую дорогу -
Щелкнет за спиной пистолет.



Кто-то поставил на мне пробу
Знать бы только, кто этот "кто"?
Злоба - воробьиное слово
Копиться в карманах пальто.

  И когда вода отступит назад
  Берег выйдет и откроет героя
  Берег выйдет и откроет врага
  Их по-прежнему останется двое.

Виски с сахаром и квашеной капустой
Лед холодный лед на висках
В голове моей прохладно и пусто
Расскажи мне, где ты и как.

Хочется блевать, но не время
Время начищать сапоги
Косточка как белое стремя
Цвета чьей-то детской ноги

  Берег встретит героя
  Берег встретит врага
  Нас всегда было двое
  А теперь только я.