Наив: другие аккорды и тексты

Аккорды и текст: Наив - "Я ложусь спать"

» Главная
» Аккорды
» Школа игры
» Софт для гитары
» Схемы примочек
» Магазин
» Продам
» Куплю
» Фотографии
» [ne]FORMAT
» Ссылки
» Форум
» Знакомства
» MIDI
» Контакты


» Смотрите информацию копии часов у нас.



Я ложусь спать

Наив


Intro 1: D
INTRO2: D       G    F# E  E F# E D
D       G    F# E  E F# E D

  D                                   G F#  C C# D 
Сижу один в пустой квартире,
 D                                    G F#  C C# D
На дачу предки отвалили. 
G                      D
Без них все просто и легко 
 D                  A
И в кайф холодное пивко, 
 A 
Но тем кто по ночам не спят, 
 A                         *
Узнали про свободный флэт 
 A  
И в дверь уже стучат. 
ПРИПЕВ:
D                               G A  D C#                    
Пошли все в жопу, я ложусь спать 
D                               G A  D C#                    
Пошли все в жопу, я ложусь спать
D                               G A  D C# B                   
Пошли все в жопу, я ложусь спать 
B                  G
    Я ложусь спать.

Пришли друзья, друзья знакомых,
Сожрали все что было дома.
Какой то умник втихаря, 
Хлебнул из бара вискаря,
Соседи вызвали ментов,  
                           *
Они грозятся дверь сломать, 
Но мне уже плевать.
Пошли все в жопу, я ложусь спать 
Пошли все в жопу, я ложусь спать 
Пошли все в жопу, я ложусь спать 
В кровать. 
Я ложусь спать. 
И само соло:

e-10-10-10-10---10-10-10-10---10-10-10-10-9-10-10-10-9-10-10-10
b------------10------------10----------------------------------
g--------------------------------------------------------------
d--------------------------------------------------------------
a--------------------------------------------------------------
E--------------------------------------------------------------
e-9-10-10-10---------------------------------------------------
b-----------8-8-10-10-----------8-8-10-10----------8-8-10-10---
g--------------------7-7-9-9-10----------7-7-9-9-10---------7-7
d--------------------------------------------------------------
a--------------------------------------------------------------
E--------------------------------------------------------------
e------------------------------------------------------------
b--------8-8-8-8-10------------------------------------------
g-9-9-10-----------------------------------------------------
d-------------------7-9-5-7-4-5-2-4-0------------------------
a------------------------------------------------------------
E------------------------------------------------------------

Опять все шторы оборвали, 
Опять всю ванну заблевали, 
Приедут предки завтра в пять,
И снова мне не сдобровать, 
И все что мне осталось,
                     *
Все что мне осталось 
- Это им сказать:
Пошли вы в жопу, я ложусь спать 
Пошли вы в жопу, я ложусь спать
Пошли вы в жопу, я ложусь спать

Outro:
D       G    F# E  E F# E D - 4х


Примечание*:
Всегда в конце каждого куплета перед последней строчкой (*)  играется быстрое соло:  

e----------------------
b----------------------
g----------------------
d---7-9-5-7-4-5-2-4-0--
a----------------------
E----------------------
Хотя возможен вариант игры на другой струне, как удобно…
Я ложусь спать