Ленинград: другие аккорды и тексты

Аккорды и текст: Ленинград - "Света"

» Главная
» Аккорды
» Школа игры
» Софт для гитары
» Схемы примочек
» Магазин
» Продам
» Куплю
» Фотографии
» [ne]FORMAT
» Ссылки
» Форум
» Знакомства
» MIDI
» Контакты


»



Света

Ленинград


Intro:

                                                     
||---------------0------------------------------||
||-----3-----------0-------2-----5-p-4-p-3------|| 
||---4---4-----0---------3---3------------------||  
||-4---------2---------4------------------------||  
||----------------------------------------------||
||----------------------------------------------||

   Hm        Em        F#                                 
||---------------0-----2------------------------||
||-----3-----------0---2------------------------||  
||---4---4-----0-------3------------------------|| 
||-4---------2---------4------------------------|| 
||---------------------4------------------------||
||---------------------2------------------------||



Hm        Em        F#            Hm
На скамеечке вдвоём мы с тобой сидим
Hm        Em            F#    Hm
Разные слова друг-другу говорим.
G         A  
Я купил тебе конфеты
D          F#
Ты люби меня за это.

Hm      F#
Света! Света!
Hm     G  F# HmHmHm
Света! 

Летний сад закрыт давно и потушен свет 
Защитит нас от врага папин пистолет

На последний рубль Света
Я купил тебе конфеты.

Света! Света!
Света! Света!

Проигрыш:
D  A Hm F# G G# A
D  A Hm F# G G# A

Hm      F#
Света! Света!
Hm     G  F# HmHmHm
Света! Света!

Здесь во время куплета играть Intro.

Не смотри ты Света так на мой наган
Я обычный питерский дворовый хулиган

G             A  
На последний рубль Света
D          F#
И люби меня за это.

Света! Света!
Света! Света!