Ленинград: другие аккорды и тексты

Аккорды и текст: Ленинград - "Прогноз погоды"

» Главная
» Аккорды
» Школа игры
» Софт для гитары
» Схемы примочек
» Магазин
» Продам
» Куплю
» Фотографии
» [ne]FORMAT
» Ссылки
» Форум
» Знакомства
» MIDI
» Контакты


»



Прогноз погоды

Ленинград



[соло]

      Dm 
Па-телеку идет прогноз погоды,
Диктор всех поздравил с новым годом
Gm 
Ты мне бухнуть не даешь ни фига
    A7                   Dm 
У нас в отношеньях сплошная пурга

[соло]

Па-телеку идет погоды прогноз,
У нас в отношеньях серьезный мороз
А если прикинуть по цельсию, бля,
К тебе охладел я почти до нуля.

      Dm                      Gm
Не надо истерик, вот этих, бля, слез
A7                       Dm
Это всего лишь погоды прогноз.

[соло]
Как играть соло:

   Dm            Dm         Gm   A7            Dm 
e|-----------------------------|------------------
B|-----------------------------|------------------
G|-2-0---2-0-----2-0---2-0---3-|-----------2------
D|-----3-----3-------3-----3---|-2--2-2--2---2-3--
A|-----------------------------|------------------
E|-----------------------------|------------------

   Dm            Dm         Gm   A7            Dm 
e|-----------------------------|------------------
B|-----------------------------|------------------
G|-2-0---2-0-----2-0---2-0---3-|-----------2------
D|-----3-----3-------3-----3---|-2--2-2--2-----0--
A|-----------------------------|-------------4----
E|-----------------------------|------------------