Ленинград: другие аккорды и тексты

Аккорды и текст: Ленинград - "Привет Тому Вэйтсу"

» Главная
» Аккорды
» Школа игры
» Софт для гитары
» Схемы примочек
» Магазин
» Продам
» Куплю
» Фотографии
» [ne]FORMAT
» Ссылки
» Форум
» Знакомства
» MIDI
» Контакты


»



Привет Тому Вэйтсу

Ленинград



Рифф главный - неполный (играется один раз):
e|----------------------------------------------|
B|----------------------------------------------|
G|---------------------------------2-1----------|
D|----------2-1-----------0--0-0-3--------------|
A|-0--0-0-3-------------------------------------|
E|----------------------------------------------|

e|----------------------------------------------|
B|----------------------------------------------|
G|----------------------------------------------|
D|-2-2-1-1-2-2-3--2-3-3-3-2-1-0---------------2-|
A|------------------------------4-3-2-1-0--0----|
E|----------------------------------------------|

Рифф главный - полнейший!
e|----------------------------------------------|
B|----------------------------------------------|
G|---------------------------------2-1--0---0---|
D|----------2-1--0---0----0--0-0-3--------3---3-|
A|-0--0-0-3--------3---3------------------------|
E|----------------------------------------------|

e|----------------------------------------------|
B|----------------------------------------------|
G|----------------------------------------------|
D|-2-2-1-1-2-2-3--2-3-3-3-2-1-0---------------2-|
A|------------------------------4-3-2-1-0--0----|
E|----------------------------------------------| 

Тоже рифф, наверное, или проигрыш, как хотите называйте!
   Dm7      Dm7/5+   Dm7      Dm7/5+
e|-5-5-5----7-7-7----5-5-5----7-8-7--|
B|-6-6-6----6-6-6----6-6-6----6-6-6--|
G|-5-5-5----5-5-5----5-5-5----5-5-5--|
D|-7-7-7----7-7-7----7-7-7----7-7-7--|
A|-5-5-5----5-5-5----5-5-5----5-5-5--|
E|-5-5-5----5-5-5----5-5-5----5-5-5--|

   Am7      Am9      Am7      Am9
e|-5-5-5----7-7-7----5-5-5----7-8-7--|
B|-5-5-5----5-5-5----5-5-5----5-5-5--|
G|-5-5-5----5-5-5----5-5-5----5-5-5--|
D|-5-5-5----5-5-5----5-5-5----5-5-5--|
A|-7-7-7----7-7-7----7-7-7----7-7-7--|
E|-5-5-5----5-5-5----5-5-5----5-5-5--|
  
   Dm7      Dm7/5+   Dm7      Dm7/5+
e|-5-5-5----7-7-7----5-5-5----7-8-7--|
B|-6-6-6----6-6-6----6-6-6----6-6-6--|
G|-5-5-5----5-5-5----5-5-5----5-5-5--|
D|-7-7-7----7-7-7----7-7-7----7-7-7--|
A|-5-5-5----5-5-5----5-5-5----5-5-5--|
E|-5-5-5----5-5-5----5-5-5----5-5-5--|

   Em7 - E7 
e|-7-7-7-7-7-7-7-7-7-7-7-7-7-7-7-7---|
B|-8-9-8-9-8-9-8-9-8-9-8-9-8-9-8-9---|
G|-7-7-7-7-7-7-7-7-7-7-7-7-7-7-7-7---|
D|-9-9-9-9-9-9-9-9-9-9-9-9-9-9-9-9---|
A|-7-7-7-7-7-7-7-7-7-7-7-7-7-7-7-7---|
E|-7-7-7-7-7-7-7-7-7-7-7-7-7-7-7-7---|

Аутро (концовка)
A|-2-0-------------------------------|
A|-----3-2-0---или----7-5------------|
E|------------------------8-7-5------|

Теперь самое главное:
   послушайте оригинал и зацените скока раз и в какой 
   очередности надо играть Главный Рифф и Проигрыш.
   Не забывайте активно импровизировать и орать: 
     "Бьютифул! Бьютифул! Вээл. Вээл!"
     
Всем советую послушать самого старика Тома, 
может вас вставит с него - все-таки крутой дядька!