Ленинград: другие аккорды и тексты

Аккорды и текст: Ленинград - "Космос"

» Главная
» Аккорды
» Школа игры
» Софт для гитары
» Схемы примочек
» Магазин
» Продам
» Куплю
» Фотографии
» [ne]FORMAT
» Ссылки
» Форум
» Знакомства
» MIDI
» Контакты


»



Космос

Ленинград



  Gm              Cm
Где-то внутри, в каждом из нас
 B                D
Есть бесконечный Космос
Чтобы лететь нужна ракета
Нет папирос - забивай сигарету

 Gm         Cm      D7
Космос... Космос...

Ты хочешь любви - на возьми вот она
За окнами бабы а с ними весна
Но космонавты не ходят к врачу
Вы любите женщин а я просто дрочу

Могучий рифф.
Космос...
Не менее могучий рифф.

Могучий рифф:
   Gm         Gm         Eb          D
e|--------------------------------------|
B|--------------------------------------|
G|--------------------------------------|
D|--------------------------------------|
A|--------3-5--------3-5-6-5-3-6-5-3-5--|
E|-3--3-6-----3--3-6--------------------|

   Не менее могучий рифф:
   Gm         Cm   A#         D
e|--------------------------------------|
B|--------------------------------------|
G|--------------------------------------|
D|--------------------------------------|
A|------------3-3---------3---5-5-5-----|
E|-3-3--3-6-3------6-6--6---6-----------|