Ленинград: другие аккорды и тексты

Аккорды и текст: Ленинград - "День рождения"

» Главная
» Аккорды
» Школа игры
» Софт для гитары
» Схемы примочек
» Магазин
» Продам
» Куплю
» Фотографии
» [ne]FORMAT
» Ссылки
» Форум
» Знакомства
» MIDI
» Контакты


» От этого вы точно выростите в массе метан данабол на нашем портале



День рождения

Ленинград



[Интро]

Am                   Dm                         Am          E
Все эти разговорчики: - Ну как там дела, 
Вчера, мол, погода  хорошая была,
А новый президент самбо обожает,
По телеку сказали - свет подорожает.

А я вот день рожденья не буду справлять!
Все заебало! Пиздец на хуй блядь!
[Соло]

Все заебало!

Песней о том как повезло невесте
По ушам мне ездили раз этак двести
А еще какая-то Земфира 
Трахает мне мозги с ночи до утра.

Я вот день рожденья не буду справлять!
Все заебало! Пиздец на хуй блядь!
[Соло]

Интро:

   E         Am 
e|---------|---------|-
B|---------|---------|-
G|---------|---------|-
D|-------2-|---------|-
A|-----2---|-0-------|-
E|-0-4-----|---------|-


Соло:
e|---------|---------|---------|---------|-
B|---------|---------|---------|---------|-
G|---------|---------|---------|---------|-
D|---------|-2-2---2-|-0-0---0-|-2-2-----|- 4 раза
A|-----0-3-|-----3---|-----2---|-----3-0-|-
E|---0-----|---------|---------|---------|-

 А самый последний раз немного иначе:

e|---------|---------|---------|---------|-
B|---------|---------|---------|---------|-
G|---------|---------|---------|---------|-
D|---------|-2-2---2-|-0-0---0-|-2-2-2---|- 
A|-----0-3-|-----3---|-----2---|-0-0-0---|-
E|---0-----|---------|---------|---------|-

Подбор: Виктор Баргачев