Ленинград: другие аккорды и тексты

Аккорды и текст: Ленинград - "Агент 007"

» Главная
» Аккорды
» Школа игры
» Софт для гитары
» Схемы примочек
» Магазин
» Продам
» Куплю
» Фотографии
» [ne]FORMAT
» Ссылки
» Форум
» Знакомства
» MIDI
» Контакты


»



Агент 007

Ленинград


Как смог я спародировал духовой проигрыш.


Intro:

1||-----0-----------0----||
2||---1----4-----4--1----||  
3||-2---------------2----|| 
4||-----------------2----|| 
5||-----------------0----||
6||----------------------||


Это всё обыгровки мизинцем Am

1||--5--7-7-7--7--5-5-5--5---8-8-8--8---7--7--7--||
2||--5--5-5-5--5--5-5-5--5---5-5-5--5---5--5--5--||  
3||--5--5-5-5--5--5-5-5--5---5-5-5--5---5--5--5--||    2 раза 
4||--7--7-7-7--7--7-7-7--7---7-7-7--7---7--7--7--|| 
5||----------------------------------------------||
6||----------------------------------------------||

                            *
1||--5-/--8----/---12--11---11-11-11-11----11-/-12---||
2||--5-/--10---/---13--12---12-12-12-12----12-/-13---||  
3||--5-/--9----/---14--13---13-13-13-13----13-/-14---|| 
4||--7-/--10---/---14--13---13-13-13-13----13-/-14---|| 
5||--------------------------------------------------||
6||--------------------------------------------------||


Можно ещё играть другой вариант на квинтах,звучащий более ритмично,
но менее выразительно:

    A5 H5       A5          C5         H5    
1||----------------------------------------------||
2||----------------------------------------------||  
3||----------------------------------------------||    2 раза 
4||--7--9-9-9--9--7-7-7--7---101010-10--9--9--9--|| 
5||--7--9-9-9--9--7-7-7--7---101010-10--9--9--9--||
6||--5--7-7-7--7--5-5-5--5---8-8-8--8---7--7--7--||

    A5   C5       E5  D#5  *                   E5 
1||--------------------------------------------------||
2||--------------------------------------------------||  
3||--------------------------------------------------|| 
4||--7-/--10---/---14--13---13-13-13-13----13-/-14---|| 
5||--7-/--10---/---14--13---13-13-13-13----13-/-14---||
6||--5-/--8----/---12--11---11-11-11-11----11-/-12---||


Здесь (в обоих вариантах) этот аккорд играется больше 4 раз, 
нужно по слуху определить самому сколько эту трель играть.

Am,Dm - на пятом ладу.

Am                               AmAmAm
Я-я, я-я ! Пришёл сегодня пьяный в жопу
                                 AmAmAm                               
Ты сказала твои нервы скоро лопнут
Dm                             DmDmDm
Ты сказала, что не можешь со мной
Am
Ты сказала: "Алкоголик больной !"
Dm
Ты сказала :"Ухожу на совсем!"
          E(IV)         E(VII)     
А мне насрать, уходи. Я агент 007 !

Intro:

Я сегодня пьяный в жопу
Ты сказала твои нервы лопнут
Ты сказала, что не любишь меня
Ты сказала, я похож на свинья.
Ты сказала, что уходишь опять
А мне насрать, уходи. У меня есть 0,5 !
 
Intro:

А-а-а-а-а-а!!!!

Тема:

1||-----------------------||
2||-----------------------||  
3||-----------------------|| 3 раза 
4||---2---3----4----3---3-|| 
5||-0---0----0---0----0---||
6||-----------------------||


1||-------------------------------||
2||-------------------------------||  
3||-------------------------------||  
4||---2---3----4--3-3-3-3-3-3-3-3-|| 
5||-0---0----0----0-0-0-0-0-0-0-0-||
6||-------------------------------||

Intro: