ћихаил  руг: другие аккорды и тексты

јккорды и текст: ћихаил  руг - "¬ладимирский централ"

ї √лавна€
ї јккорды
ї Ўкола игры
ї —офт дл€ гитары
ї —хемы примочек
ї ћагазин
ї ѕродам
ї  уплю
ї ‘отографии
ї [ne]FORMAT
ї —сылки
ї ‘орум
ї «накомства
ї MIDI
ї  онтакты


ї ”становка пожаротушени€ hydro mx насосы hydro vito-group.ru.



¬ладимирский централ

(альбом "¬ладимирский централ")

ћихаил  руг

год: 1999
подбор: Ќиколай ћаров, email: kolmar1986@mail.ru

_¬ступление_:
e(1) -10-12-14-7---|-9-10-12-10---9---|
-14--12-10-9--7--5-5-|-10-12-10-9--10--12--14--|
-14-15-14-15-14-

_—оло_:
e(1) ----------------------------------|
b(2) -----------------2--5--3--2-2--3--|
g(3) ---------0----3-------------------|
d(4) ---2--4----4----------------------|

e(1) ----------------0--3--2-1-2--|
b(2) -------0--2--3---------------|
g(3) -0--2------------------------|

e(1) -------5--3---------------3--2---------|
b(2) --0-0--------0--3--2------------2-2--3-|
g(3) ---------------------------------------|
d(4) -----------------------4---------------|

e(1) -0--2--3---------------|
b(2) -------------2---------|
g(3) ----------3-----3---4--|

_ѕроигрыш_:
e(1) -2-2--3--2-0--3--2--|----------------------|
b(2) --------------------|-3-3--5----3--2--5--3-|

e(1) -2-2--3--0-0--5-3--2--|------------------|
b(2) ----------------------|-3-3--5--5-3--2---|

—ама песн€:

_¬ступление_

 уплет Ш1:
 Em              F#     Hm
¬есна оп€ть пришла,
             G       Em
» лучики тепла,
              F# 
ƒоверчиво гл€д€т
   Am    H7
¬ моЄ окно...
Em              F#      Hm 
ќп€ть защемит грудь,
                 G     Em
» в душу лезет грусть,
               F#      Hm  
ѕо пам€ти пройдЄт со мной

_ѕроигрыш_

 уплет Ш2:
ѕойдЄт, разворошит,
» вместе согрешим
— той девочкой что так 
ƒавно любил,
— той девочкой ушла,
— той девочкой пришла,
«абыть еЄ не хватит сил

ѕрипев:
Em                F#             
¬ладимирский ÷ентрал, ветер северный,
Hm            G
Ётапом из “вери, зла немер€но,
Em            A          D    D7
Ћежит на сердце т€жкий груз.
G                 H7   
¬ладимирский централ, ветер северный,
Am  H7        Em
 огда € банковал, жизнь размен€на,
Hm                   F#
Ќо не очко обычно губит, 
                Hm 
ј к одинадцати туз

_ѕроигрыш_

 уплет Ш2:
“ам под окном зэка,
ѕроталина тонка,
» всЄ, что не долга
ћо€ весна...
я радуюсь, что здесь,
’оть это-то, но есть,
 ак мне тво€ любовь нужна!..

_ѕрипев_
_—оло_
ѕрипев:
_ѕроигрыш_


Var.1 Dm E весна оп€ть пришла, Am F » лучики тепла Dm G C A ƒоверчиво гл€д€т в мое окно. Dm E Am F ќп€ть защемит грудь, и в душу влезет грусть Dm E Am ѕо пам€ти пойдет со мной... ѕойдет разворошив » вместе согрешим — той девочкой что так давно любил — той девочкой ушла — той девочкой пришла «абыть е£ не хватит сил Dm E ѕрипев: владимирский централ - ветер северный, Am F Ётапом из “вери шел немеренно, Dm G C чежит на сердце т€жкий груз. Dm E владимирский централ - ветер северный, Am F  огда € банковал жизнь размеренно, Dm E Am Ќо не очко обычно губит, а к одиннадцати туз. “ам за окном ззка ѕроталина тонка » вс£ что не долга мо€ судьба я радуюсь что здесь ’оть зто-то но есть  ак мне тво€ любовь нужна Var.2 ~~~~~ Em F# Hm ќп€ть пришла весна G Em » лучики тепла F# Am H7 ƒоверчиво гл€д€т в мо£ окно ≈m F# Hm ќп€ть защемит грудь G Em » в душу влезет грусть F# Hm ѕо пам€ти пройдет со мной ѕойдет разворошив » вместе согрешим — той девочкой что так давно любил — той девочкой ушла — той девочкой пришла «абыть е£ не хватит сил Em F# Hm владимирский централ ветер северный G Em Ётапом из “вери шел немер€но A D чежит на сердце т€жкий груз G H7 владимирский централ ветер северный Am H7 Em  огда € банковал жизнь размеренно Hm F# Ќо не очко обычно губит, а к одинадцати туз далее свист по тексту Em F# Hm Em F# Hm Em Hm Em F# Hm “ам за окном ззка ѕроталина тонка » вс£ что не долга мо€ судьба я радуюсь что здесь ’оть зто-то но есть  ак мне тво€ любовь нужна