Крематорий: другие аккорды и тексты

Аккорды и текст: Крематорий - "Мусорный ветер"

» Главная
» Аккорды
» Школа игры
» Софт для гитары
» Схемы примочек
» Магазин
» Продам
» Куплю
» Фотографии
» [ne]FORMAT
» Ссылки
» Форум
» Знакомства
» MIDI
» Контакты


»



Мусорный ветер

Крематорий



<Проигрыш>:
  Em                      D
--7-----0-----0-2-3-7-----5---2-----2-5-----5----- #1
------0---0-------------0---------3-------3---3---
----0-------0---------0-----2---2-------2-------2-      <----------
--------------------------0-----------0-----------                |
--------------------------------------------------                |
--0-----------0-----------------------------------                |
  C                       H7                                      |
--3-----0---------0-3-----2-----------2-----2----- #2             |
------1---1---1-3-----1-------4-4-0-4-----0---0---                |
----0-------0-----------0---2-----------2-------2-                |
--------------------------------------------------                |
--3-----------3-----------2-----------2-----------                |
--------------------------------------------------                |
  Em                      D                                       |
--7-----0-----0-2-3-7-----5---2-----2-5-----8-7-5- Можно играть и | #1
--8---8---0-----4-5-8---8---------3-------3------- вместо этой "строки"
----0-------0---------0-----2---2-------2--------- #3
--------------------------0-----------0-----------
--------------------------------------------------
--0-----------0-----------------------------------
  C                       H7
--3-----0---------0-3-----2-----------2-----2-3-2- #4
------1---1---1-3-----1-------4-4-0-4-----0-------
----0-------0-----------0---2-----------2---------
--------------------------------------------------
--3-----------3-----------2-----------2-----------
--------------------------------------------------
  Em
--0-----0-----------------                          #5
------0---0---------------
----0-------0-------------
--------------------------
--------------2-3-2-0-----
--0-------------------3-2-

1)
  Em              C         H7
 Мусорный ветер, дым из трубы,
   Em            C       H7
 Плач природы, смех сатаны,
     C               F#
 А все от того, что мы
    C              F#
 Любили ловить ветра
        H7       Em
 И разбрасывать камни.

 [Басовый ход]
 5 -2-3-2-0-----
 6 ---------3-2- (возможны варианты)

 Песочный город, построенный мной,
 Давным-давно смыт волной.
 Мой взгляд похож на твой:
 В нем нет ничего, кроме снов
 И забытого счастья.

Припев:
 -0-2-3-  - указательный   Hебольшой заход в припев :)
 -------
 -------
 -------
 -------
 -0-2-3-  - большой палец

  Am7          D
 Дым на небе, дым на земле,
   G       Hm    Em
 Вместо людей машины.
  Am7             D
 Мертвые рыбы в усохшей реке,
     G       Hm     Em
 Зловонный зной пустыни.
  Am                        F#
 Моя смерть разрубит цепи сна,
  H7              Em
 Когда мы будем вместе.

 Проигрыш
2)
 Ты умна, а я - идиот,
 Hеважно, кто из нас раздает,
 Даже если мне повезет,
 И в моей руке будет туз - то в твоей будет джокер.
 [Басовый ход]
 Так не бойся милая - ляг на снег,
 Слепой художник напишет портрет,
 Воспоет твои формы поэт,
 И станет звездою актер бродячего цирка.
 Припев
 Проигрыш : #3 #4 #5 + флажолет на 12 ладу по вкусу :)