Крематорий: другие аккорды и тексты

Аккорды и текст: Крематорий - "Безобразная Эльза"

» Главная
» Аккорды
» Школа игры
» Софт для гитары
» Схемы примочек
» Магазин
» Продам
» Куплю
» Фотографии
» [ne]FORMAT
» Ссылки
» Форум
» Знакомства
» MIDI
» Контакты


»



Безобразная Эльза

Крематорий



Соло:
   D                                       C     D
 |-0-2-0---2-2---0-2-0---2---0-2-0---2-2---0-2-0---
 |-------3-------------3-----------3-------------3-
 |-------------------------------------------------
 |-------------------------------------------------
 |-------------------------------------------------
 |-------------------------------------------------


|-3-5-3-2-5-5---3-5-3-3-5---3-5-3-2-5-5---3-5-3-2-
|-------------------------------------------------
|-------------------------------------------------
|-------------------------------------------------
|-------------------------------------------------
|-------------------------------------------------

|-0-----0-----0---------------0-------0-----------
|-----3-----3---3-1-0-------1---3---3---3-1-0-----
|---------------------2---2-----------------------
|-------------------------------------------------
|-------------------------------------------------
|-------------------------------------------------

  D                            A    D
  f#ed f#ed f#ed f#  f#edf#f#  ef#e d

  D
        Em          e^d^ C            G
  Безобразная Эльза    -   королева флирта
     D               Am         Em         D
  С банкой чистого спирта я спешу к тебе

  Нам за тридцать уже       и все, что было
  Не смыть ни водкой, ни мылом с наших душ

   Fm#                                    Hm
   Ведь мы живем для того, чтобы завтра сдохнуть
   Fm#                              Hm
   Мы живем для того, чтобы завтра сдохнуть

  Безобразная Эльза, ну что ты шаришь глазами
  И как зверушка когтями скребешь по стеклу
  Все, что было, прошло, значит надо добавить
  Еще, чтобы стало светло, хотя бы на миг