Костя: другие аккорды и тексты

Аккорды и текст: Костя - "Я тебя..."

» Главная
» Аккорды
» Школа игры
» Софт для гитары
» Схемы примочек
» Магазин
» Продам
» Куплю
» Фотографии
» [ne]FORMAT
» Ссылки
» Форум
» Знакомства
» MIDI
» Контакты


»



Я тебя...

(альбом "Inoy")

Костя

слова: Костя, музыка: Костя
год: 2005
подбор: Stun@list.ru

Вступление:               

|-3--3-3-3-2--2-2-2-3--3-3-3-2--2-2-2-7--7-7-7-5--5-5-5-3--3-3-3-2|
|-----------------------------------------------------------------|
|-----------------------------------------------------------------|





    D                                       A7     E7-Am
|-2-------2------2------2-----------------0----| Точно также какна А7
|--3---------3-----3-------3-----------2---2---|
|---2---------2-----2-------2------------0--0--|
|-o-------0------0------0---------------2-4----|
|--------------------------------------0-------|
|----------------------------------------------|

  D      A7    E7                Am
Любил,  Люблю, знай только одну, тебя

Ночь    темна, а ты идёшь  одна. 
H7

(боем без заглушки)
    С            F#
Не печалься не грусти 
A           Е
Подороге по молчи

Если Вдруг увидишь ты меня

то шепни на ушко:"я люблю тебя"

Припев:

              С            G            Am       Hm
    | Я тебя жду Я стобой сплю я тебя боюсь я тебя люблю  
2р  |  С              G          Am              
    | Я тебя ждал я с тобой спал я тебе врал. 

После слова врал очень бустро сыграть D7 E


Тихой ночью под окном целовались мы вдвоём
Ну а потом пошли гулять стобой вдвоём

Не пугайся не дрожи
если хочешь помолчи
Ты же знаешь я с тобой 
Ты за каменой стеной

Припев:



(В дополнение после припева и ещё раз припев)
Ну а если чесно!



Завершение:
|-3--3-3-3-2--2-2-2-3--3-3-3-2--2-2-2-7--7-7-7-5--5-5-5-3--3-3-3-2|
|-----------------------------------------------------------------|
|-----------------------------------------------------------------|