Король и Шут: другие аккорды и тексты

Аккорды и текст: Король и Шут - "Воспоминание о былой любви"

» Главная
» Аккорды
» Школа игры
» Софт для гитары
» Схемы примочек
» Магазин
» Продам
» Куплю
» Фотографии
» [ne]FORMAT
» Ссылки
» Форум
» Знакомства
» MIDI
» Контакты


»



Воспоминание о былой любви

(альбом "Как в старой сказке")

Король и Шут

подбор: Acses Denide

Вступление (2 раза)
           Em              Am              D
-----------------0---------------------0---2-----2h3p2----------------------
-------------------0-------1-----1-3---------3---------3-----3-----0-1---3--
-----------0---0-----0---0---2-------2---2-----2---------2-----0-------0---0
-----1-2-4---2---------2-------2-----------0---------------------0----------
-2-4-------2---------------0------------------------------------------------
-------------------------------------------------------------3-------------

C                Am              H7
-------0---------------0-----------------2-----------------------
-1-------1---0---1-------1-------------0---0---------------------
---0-------0---0---2-------2---2-----2-------2-------------------
-----2---------------2-------2-----1-----------1-----------------
-3---------------0---------------2---------------2---------------
-----------------------------------------------------------------

                                                                                     

Em               Am D               G
   Дремлет за горой   мрачный замок мой            
C            Am         H7    
   Душу мучает порой царящий в нем покой 
   Я своих фантазий страждущий герой 
   О любви моей живой все образы со мной 
   
   Припев:       
      Em           Am        В                  Em                
   Я часто вижу страх в смотрящих на меня глазах
       Am        D             G  C   
   Им суждено уснуть в моих стенах,        
       Am           H7       
   застыть в моих мирах. 

   Но сердце от любви горит, моя душа болит 
   И восковых фигур прекрасен вид 
   покой везде царит 
   
   Я их приводил, в свой прекрасный дом
   И вином поил и развлекались мы потом
   Иногда у них, легкий был испуг
   От прикосновений к нежной шее крепких рук 
  
   припев
         
   Вот несет одна, мне свои цветы 
   Вот стоит другая погруженная в мечты
   Я пытался их до смерти рассмешить 
   Но пришлось как в старой сказке просто задушить 
   
   припев