Король и Шут: другие аккорды и тексты

Аккорды и текст: Король и Шут - "Соло к альбому "Камнем по голове""

» Главная
» Аккорды
» Школа игры
» Софт для гитары
» Схемы примочек
» Магазин
» Продам
» Куплю
» Фотографии
» [ne]FORMAT
» Ссылки
» Форум
» Знакомства
» MIDI
» Контакты


»



Соло к альбому "Камнем по голове"

Король и Шут


  1. Смельчак и ветер
  2. Проказник скоморох
  3. Верная жена
  4. Садовник
  5. Блуждают тени
  6. Внезапная голова
  7. Шар голубой (народная)
  8. Злодей и шапка
  9. От женщин кругом голова
  10. Рыбак
  11. Мотоцикл
  12. Холодное тело
  13. Дурак и молния
  14. Леший обиделся
  15. Два вора и монета
  16. Любовь и пропеллер
  17. Камнем по голове
  18. С тех пор, как он ушёл
  19. История, окутанная тайной
  20. Лесные разбойники
  21. Мария

Смельчак и ветер
Соло на басу в начале:
  G-|--------------------------------
  D-|-----------------2-2-0-0-2-2-0-0
  A-|-2-2-0-0------------------------
  E-|---------3-3-2-2----------------

Скоморох
 Соло:
  E-|------------------------------
  H-|------------------------------
  G-|---------------------------6--
  D-|-------------4-7-4-6-6-7-9---7
  A-|-----4-7-4-5------------------
  E-|-5-5--------------------------

Блуждают тени
 Соло:
    Играется с бендом до завывания усилка:
  D-|-5-5-5-5-5-5-----
  A-|-----------------
  E-|-----------------
 ( если не завыл то вторая на 8, тоже "соль" )

  D-|-----------------------
  A-|-5-4-5-2---(слайд)-15--
  E-|-----------------------

    Потом "соль" c бэндом.

Внезапная голова
 Соло на басу:
  G-|-6---4-6---------------
  D-|---6-----6-7-7-6-4-2-1-
  A-|-----------------------
  E-|-----------------------

Злодей и шапка
    Вступление:
  E-|-7-7---------10-10
  H-|-----8-8-7-7------
  G-|------------------

    Одновременно с "Как-то, некто...":
  G-|-4-4--------------
  D-|-4-4-------------- - 2 раза 
  A-|-2-2-m2-m2-m2-----  m - muted,
  E-|------------------

    Одновременно с "На базар пришел...":
  G-|-------------
  D-|-------5-4---
  A-|-2-4-5-----5-
  E-|-------------


    Одновременно с "К самой первой...":
  G-|-4-4--------------
  D-|-4-4-------------- - 2 раза 
  A-|-2-2-m2-m2-m2-----  m - muted,
  E-|------------------

    Одновременно с "Лавке подошел...":
  G-|---4-2-4-----
  D-|-4-------4-2-
  A-|-------------
  E-|-------------

    Одновременно с "Эй продавец...":
  H-|-3-3-2-3-5-3-2- ...
     
    Промежуточное соло:
  A-|-2-2---------5-5-
  E-|-----3-3-2-2-----

Холодное тело
  Вступление на басу ноты "F" и "G" 
  Переход с "F" на "G" слайдом.

  Соло:
  G-|-------------------------7-
  D-|-7-8-8-8-7-8-8-8-7-8-8-8---
  E-|---------------------------

  G-|-------------------------10-8-
  D-|-7-8-8-8-7-8-8-8-7-8-8-8------
  E-|------------------------------

Дурак и молния
  Соло:
  E-|-------------------------------------4--------
  H-|-5-5-5-4-4-4-5-----5---4-5---5-5-7-7---5-10-9-
  G-|---------------6-----------6------------------
  D-|-----------------7---6------------------------
  A-|----------------------------------------------
  E-|----------------------------------------------

Леший обиделся
  Соло в конце:
  E-|-------------------------5-4-2-4-5-4-5-10-9-
  H-|---------4-6-7---5-5------------------------
  G-|-6-6----------------------------------------
  D-|---------------6-----6-7--------------------
  A-|-----7-9------------------------------------
  E-|--------------------------------------------

Любовь и пропеллер
 Соло в начале:
  D-|---------------------------
  A-|-------2-1-0---------2-1-0- - несколько раз
  E-|-0-3-0-------0-0-3-0-------

  "И с утеса вниз..."
             A-|-2-2-4-2-2-4-2-2-4-2-2-4-

Лесные разбойники
  Вступление:
  E-|---------------------------
  H-|-----5-------7---------7-7-
  G-|-4-4---4-6-6---6-9-6-9---8-