I.F.K: другие аккорды и тексты

Аккорды и текст: I.F.K - "Панкрок"

» Главная
» Аккорды
» Школа игры
» Софт для гитары
» Схемы примочек
» Магазин
» Продам
» Куплю
» Фотографии
» [ne]FORMAT
» Ссылки
» Форум
» Знакомства
» MIDI
» Контакты


»



Панкрок

I.F.K


Intro:
E|------------------------------------
H|------------------------------------
G|--5-xxxxxx-5------------------------
D|--5-xxxxxx-5-----5-xxxxxx-5---------
A|--3-xxxxxx-3-----5-xxxxxx-5---------
E|-----------------3-xxxxxx-3---------
E|--------------------------------|
H|--------------------------------|
G|--------------------------------|
D|--7-xxxxxx-7-----3-xxxxxx-3-----|
A|--7-xxxxxx-7-----3-xxxxxx-3-----|
E|--5-xxxxxx-5-----1-xxxxxx-1-----|
E|---------------------------------|
H|---------------------------------|
G|--555555-------------------------|
D|--555555-555555-777777-333333----|
A|--333333-555555-777777-333333----|
E|---------333333-555555-111111----|

Забудь про то, кто ты такой,
Залезь в толпу и там:
Кричи и бейся головой об стенку.
Засунь в анал свой институт,
Работу, школу, и тебя поймут,
Прочистят мозг, кишки и мысли.

Припев:
Прыгни, упади, забудь что ты дурак, а мы - дебилы.
Прыгни, упади, забудь что ты дурак, а мы - дебилы.
Прыгни, упади, забудь что ты дурак, а мы - дебилы.
Прыгни, упади, забудь что ты дурак, а мы - дебилы. 

И днем и ночью все равно нас ждёт ПИЗДЕЦ.
Когда мы вместе, пиво есть, и есть упасть где.
Давай-ка Макс, а Витя подыграй 
И Вадик с Митей исполняйте.
Эй налей и будет I.F.K.

Припев:
Прыгни, упади, забудь что ты дурак, а мы - дебилы.
Прыгни, упади, забудь что ты дурак, а мы - дебилы.
Прыгни, упади, забудь что ты дурак, а мы - дебилы.
Прыгни, упади, забудь что ты дурак, а мы - дебилы. 
   
  P.M.:.............................
E|------------------------------------|
H|------------------------------------|
G|-5-5-3-5----------------------------|
D|-5-5-3-5--5-5-3-5--7-7-5-7--3-3-1-3-|
A|-3-3-3-3--5-5-3-5--7-7-5-7--3-3-1-3-|
E|----------3-3-3-3--5-5-5-5--1-1-1-1-|

Шесть старых пердунов сидят,
И чем-то тихо говорят,
Что было время их здоровых тел.
А жены варят суп- пюре и думают о голове.
Но это будет позже, а сейчас:
Letґs get rock.
Let?s get rock.
Let?s get rock.
Let?s get rock. Ro-ock.

Припев:
Прыгни, упади, забудь что ты дурак, а мы - дебилы.
Прыгни, упади, забудь что ты дурак, а мы - дебилы.
Прыгни, упади, забудь что ты дурак, а мы - дебилы.
Прыгни, упади, забудь что ты дурак, а мы - дебилы.