Фактор 2: другие аккорды и тексты

Аккорды и текст: Фактор 2 - "Казанова"

» Главная
» Аккорды
» Школа игры
» Софт для гитары
» Схемы примочек
» Магазин
» Продам
» Куплю
» Фотографии
» [ne]FORMAT
» Ссылки
» Форум
» Знакомства
» MIDI
» Контакты


»



Казанова

Фактор 2

подбор: ИГОРЁХА

                Казанова

Соло:           [--7--7---5--7--8--10--8--7---5

                E----------0-------------------0-----------0-------------------0--
                B------1-------1-------3-----0---0-----1-------1-------3-----0--0-
                G----2---2---2---2---2-----1---------2---2---2---2---2-----1------
                D------------------0-------------------------------0--------------
                A------------------------2-------------------------------2--------
                E--0-------------------------------0------------------------------

                ---------1-------------------1-----------0-------------------0----
                -----1-------1-------1-----1---1-----0-------0-------0-----0---0--
                ---2---2---2---2---2-----2---------1---1---1---1---1-----1--------
                -----------------3-------------------------------2----------------
                -----------------------3-------------------------------2----------
                -1-------------------------------0--------------------------------]

               Am
                Возле дома ты
               Dm          E
                Стоишь, качаясь,
               Am                 Dm            E
                Пьяными глазами разглядеть пытаясь:
               F
                С кем она идет уже в обнимку
               E
                В тихое местечко, покинув вечеринку.

                Ночь уже настала, возьмешь заточку,
                Как же ты хотел от нее дочку.
                Все твои мечты накрылись разом:
                Зачем же ты связалась
                С этим пидорасом?!
                (в припеве такие же аккорды
                Ночь, ночь, ночь
                Ты опять ходишь где-то,
                Столько звезд подарило нам лето!
                С горя я напьюсь, с горя накурюсь снова,
                Ведь тебя ласкает очередной Казанова

                Ты подходишь к ней
                И так нескромно
                Говоришь ей: "Сука, с меня довольно!"
                Достаешь заточку, взмахнул рукою-
                Враз рукав ты свой запачкал кровью.
                Пачку сигарет достал с кармана
                Вместо табака - марихуана.
                Крепко затянулся, менты схватили,
                И уже наутро
                Тебя казнили

               Припев