ДДТ: другие аккорды и тексты

Аккорды и текст: ДДТ - "Фонограмщик"

» Главная
» Аккорды
» Школа игры
» Софт для гитары
» Схемы примочек
» Магазин
» Продам
» Куплю
» Фотографии
» [ne]FORMAT
» Ссылки
» Форум
» Знакомства
» MIDI
» Контакты


»



Фонограмщик

ДДТ



   W\w distortion using vidratto bar
   intro:
       A5               C5         D5                        A5               C5         D5
e1)--------------------------------------------------------------------------------------------------
b2)--------------------------------------------------------------------------------------------------
g3)--------------------------------------------------------------------------------------------------
d4)-----7----5----2----5----7----7-------------------------7----5----2----5----7------7--------------
a5)-0----------------------------0------------------------0----------------------------0-------------
e6)---------------------------------------3---------------------------------------------------------3
play 4 times
              
              
bass part
riff A:
g1)--------------------------------------------------------------------------------------------------
d2)--------------------------------------------------------------------------------------------------
a3)--------------------------------------------------------------------------------------------------
e4)--5--5---3----5--5--5---3-------------------------------------------------------------------------
play 4 times
              
Bass part
Verse
e1)--------------------------------------------------------------------------------------------------------------------------
b2)--------------------------------------------------------------------------------------------------------------------------
g3)-----------------------------------------------------------0----2----5----2-----------------------------------------------
d4)--------------------------------------------------------------------------------------------------------------------------
a5)---------------------------------------------------------------------3--3--2---3--3--3--3---0----3--3--2---3--3--3--3---0-
e6)--5--5---3----5--5--5---3------5--5---3----5--5--5---3--------------------------------------------------------------------
             Oн разевает свой рот как карась на песке.
             Он на сцене а в глазах по голубой тоске.
              
e1)--------------------------------------------------------------------------------------------------------------------------
b2)--------------------------------------------------------------------------------------------------------------------------
g3)-----------------------------------------------------------0----2----5----2-----------------------------------------------
d4)---------------------------------------------------------------------3--3--2---3--3--3--3---0----3--3--2---3--3--3--3---0-
a5)--5--5---3----5--5--5---3------5--5---3----5--5--5---3--------------------------------------------------------------------
e6)--------------------------------------------------------------------------------------------------------------------------
                  А в глазах по тоске по куску короче в них
                  Извивается и скачет всенароднвй жених                              
Pre-Chorus
    A5 
e1)--------------------------------------------------------------------------------------------------------------------------
b2)--------------------------------------------------------------------------------------------------------------------------
g3)--10/11--11/12--10/11--12/11/10/9-----------------------------------------------------------------------------------------
d4)--------------------------------------------------------------------------------------------------------------------------
a5)--------------------------------------------------------------------------------------------------------------------------
e6)--------------------------------------------------------------------------------------------------------------------------
                    Главное это  знойная страсть... 
              
Chorus
e1)-----------------------------------------------------------------------------
b2)-----------------------------------------------------------------------------
g3)-------------------------0--2--7--9--7---------------------------0--2--7--2--
d4)--2---2--1--0------------------------------2---2--1--0-----------------------
a5)--2--------------3---------------------------2-------------3-----------------
e6)--0----------------3-------------------------0-----------------3-------------
              
              
             Он разевает свой рот как карась на песке
             Он на сцене а в глазах по голубой тоске
             А в глазах по тоске по куску короче в них
             Извивается и скачет всенародный жених
              
             Главное это знойная страсть 
             Шаг влево шаг вправо лишь бы не упасть 
             Главное поза секс манера
             И ты будешь пророком героем примером
              
             Фонограмщик 
              
             Improvisation - 2 seconds
              
             intro
              
             verse2
              
             Он ангел он демон он такой заводной
             Но вместо крыльев фанера гремит за спиной
             Опереточный пахарь надушенный член
             Он ждёт для страны больших перемен
              
             Главное вовремя вильнуть бедром
             Будь ты на трибуне хоть помойным ведром
             И не важно что петь важней кому дать
             У него никогда не скрипит кровать
              
             Фонограмщик
              
             NO guitar
              
             Я включил телевизор посмотреть рок-н-ролл а там
             фонограмщик
             3)--0--2--7--2
             Я спустил с туалета над горшком прикол
             фонограмщик
             3)--0--2--7--2
             Мне приснился страшный сон что наш президент
             Фонограмщик
             3)--0--2--7--2
             Что наш главный герой кормилец и мент
             фонограмщик
             3)--0--2--9--2.
              
             Em (6)-(3)-(1\2)-(3)
             Em (6)-(3)-(1\2)-(3)
             G(6)-(3)-(1\2)-(3)
             A(6)-(3)-(1\2)-(3)
              
             А знаменитый продюсер столичный бандит
             Брюзжит ты не качаешь нужен новый хит
             Ты сел про Сашу бананы Любовь Анастасию
             Америку Машу Олю Катю Наташу
             А теперь давай про эту Ну как ее ну вот ну 
             А вспомнил
             Про РОССИЮ!
              
             Фонограмщик
              
             Фонограаааааааааааааааааааааааааааааааааааааааааааа