Чичерина: другие аккорды и тексты

Аккорды и текст: Чичерина - "Уходя - Уходи"

» Главная
» Аккорды
» Школа игры
» Софт для гитары
» Схемы примочек
» Магазин
» Продам
» Куплю
» Фотографии
» [ne]FORMAT
» Ссылки
» Форум
» Знакомства
» MIDI
» Контакты


»



Уходя - Уходи

Чичерина



Riff1:
         D       D C         Gm  C   Fm
  e-------------------------------------
  B--------------7-5-------------5------
  G--------------7-5-------------5------
  D--2/3---------7-5-------3-----5------
  A------0-5-----------3/5--------------
  E--------------------------3-------1--

Verse:
D                         Gm      Fm
  Холодный душ, холодные пальчики           [Весь куплет с Riff1]
  В серых домах - серый свет
  По больничному потолку - солнечные зайчики
  И белые лица на белой стене

Chorus:
F5              A5                D5       A5  A#5  D5  F5
  Уходя - уходи,  улетаешь - улетай        -x- -x- -x- -x-
                   A#5                     -x- -x- -x- -x-
  Через небо протяни мне тропинку в рай    -x- -x- -7- -10-
F5            A5                 D5   A#5  -7- -8- -7- -10-
  Уходя - уходи, улетаешь - улетай...      -7- -8- -5- -8-
                                           -5- -6- -x- -x-
[Riff1]

Verse:
N.C.                                  Riff2:
  Серое небо дырами скалится            e|-------------------
  Бешеный танец, пульс на нуле          B|--3---3---3---3----
[Riff2]                                 G|----2---2---2---2--
  По краешку стекла тонкими пальцами    D|-------------------
  Осеннее солнце блестит на игле

[Chorus]

   G5               G5               F5               F5
D|---------5----------------5----------------3----------------3----------
A|---------5----------------5----------------3----------------3----------
E|-3-3-3-3----------3-3-3-3----------1-1-1-1----------1-1-1-1------------
 Спи...       Шелестит листва, за окном поет пыльный ветер в водосточных

   G5               G5               F5               A5
D|---------5----------------5----------------3----------------7-----------
A|---------5----------------5----------------3----------------7-----------
E|-3-3-3-3----------3-3-3-3----------1-1-1-1----------5-5-5-5-------------
 трубах...      Спи...      Вечным сном, целуй меня в губы, целуй меня...

   A5
D|---------7---7-------------
A|---------7---7-------------
E|-5-5-5-5-----5-------------
                   В губы...

Fill:
  G|---------------------2--0----------------------
  D|----------------2/3--------2-------------------
  A|--1-1-1-1-1-1-1---------------1-1-1-1-1-1-1-1--

[Припев] x 2

[Riff1 со звуками осциллографа]