Чичерина: другие аккорды и тексты

Аккорды и текст: Чичерина - "Луна"

» Главная
» Аккорды
» Школа игры
» Софт для гитары
» Схемы примочек
» Магазин
» Продам
» Куплю
» Фотографии
» [ne]FORMAT
» Ссылки
» Форум
» Знакомства
» MIDI
» Контакты


»



Луна

Чичерина



Intro[2 гитары]:

clean:     1                 2                 3

e|-----------------|-----------------|-----------------
B|-2---2---2---2---|-2---2---2---2---|-----------------
G|---2---2---2---2-|---1---1---1---1-|-2---2---2---2---
D|-----------------|-----------------|---3---3---3---3-

    4         4ая часть во 2й раз:
e|----------------------------------
b|--------------------------3-------
g|-1---1---1---1----1---1-----2---2-
d|---2---2---2---2-----2---2-----2---

distortion:
e|---------------------------------------------------0-------------------
B|-------------2-----------------------------2--------0------------------
G|-2-----------------1-----------------2---------------1-----------------
D|------------------------------------------------------2----------------
A|-------------------------------------------------------2---------------
E|--------------------------------------------------------0--------------

     A  G#         F        E
  Луна,    тихо и так тепло
      A  G#           F         E
  Стена,    гладкая, как стекло

[Intro: clean]
  A                          G#      F           E
  Окна, двери, словно звери,    голоса за стеной
   A                       G#         F        E
  Тени, слезы, ласки, позы    маются под Луной

A  A7           D   G        C
      Иди же, иди...     Ближе
C7              E   E7
      Все впереди      Я вижу

Solo1:
  e|--6---------5-----------5-----------7--
  B|------3-2-----3-2---2-3----------------
  G|---------------------------------------
  D|---------------------------------------
  A|----------------------------------7----
  E|------------------------------7--------

[Параллельно играется:]
      A         G#          F           E

  Луна падает в облака
  Тела сливаются как вода

  Шепот и пот, слезы и лед, голоса за стеной
  Пальцы, огни, снова одни тянутся под Луной

  Иди же, иди, ближе
  Все впереди, я вижу

Solo2:


e|--5---/7-5-4-----------------------0---5---/7-5-4-----------------
B|----------------------------------------------------------------6-
G|-----------------9-7-6-6h7----------------------------9-7-6-6h7---
D|---------------------------7---6----------------------------------

e|-------------
B|--10--12^^^--
G|-------------
D|-------------

                                 2 раза

e|--------------------------------------------------------17---19^^^-
B|--14-------14-------14----14-------14-------14----14-15------------
G|-----14-14----14-14----14----13-13----13-13----13------------------
D|-------------------------------------------------------------------

e|-21^^^--
B|--------
G|--------
D|--------

  Иди же, иди, ближе
  Все впереди

  Иди же, иди, ближе
  Все впереди
  Я вижу