Чичерина: другие аккорды и тексты

Аккорды и текст: Чичерина - "Сны"

» Главная
» Аккорды
» Школа игры
» Софт для гитары
» Схемы примочек
» Магазин
» Продам
» Куплю
» Фотографии
» [ne]FORMAT
» Ссылки
» Форум
» Знакомства
» MIDI
» Контакты


»



Сны

Чичерина



Riff:
  G------------------------------4-4--
  D--------------4-2------------------
  A--4---4---4-4-------4---0-2-2------
  E-----------------------------------

[здесь медленный слайд с тремоло]

  C#5
  Ха!

[здесь рифф в C#]

C#m                         Am               A
  В ночь по узким коридорам    сны крадутся вереницей
  Темнокрылой звездной птицей все распахивают двери
F#           A#sus2   A#m D#m        B      G#
  Заползают под подушку, как напуганные звери

Fill1:
  C#m Em  [x3]
  F#m G#m

C#m                           Am              A
  Гнезда вьют в умах уснувших    из пустых и легких слов
  Ты не вспомнишь этих снов, пробудившись на рассвете
F#             A#        D#m       B           G#
  Утром их размоет дождь и развеет южный ветер-р-р

Chorus:

D#m       F#     G# A#
  Сны, тебе не снятся
  Сны, тебя боятся
  Сны, тебе не снятся
  Просто сны тебя боятся

[Riff]

D#m                         B  A#
  В ночь по узким коридорам
  Сны крадутся вереницей
  Темнокрылой звездной птицей
  Все распахивают двери

Fill2 [одновременно с Fill1]:
  e-----------------------------------
  B--8---------8---------13--------7--
  G----9---9-----9---9------12-----8--
  D--------------------------------9--
  A-----------------------------------

  Сны, тебе не снятся
  Сны, тебя боятся
  Сны, тебе не снятся
  Сны, тебя боятся
  Сны, тебе не снятся
  Просто сны тебя боятся