Чичерина: другие аккорды и тексты

Аккорды и текст: Чичерина - "Пожарные"

» Главная
» Аккорды
» Школа игры
» Софт для гитары
» Схемы примочек
» Магазин
» Продам
» Куплю
» Фотографии
» [ne]FORMAT
» Ссылки
» Форум
» Знакомства
» MIDI
» Контакты


»



Пожарные

Чичерина


Verse:
 A
   В холодильнике пусто, в туалете темно
C#m                                A
    Из окна пахнет вкусно - варят суп под окном
      H
   Пожарные
F#m                              A        E
    В серебряных касках добрые, ласковые
 A                                            C#m
   Мой веселый сосед поучает жену и она наполняет весь свет
            A                H
   Как всегда поутру своими воплями
F#m                                   A
    Мелодично-красивыми пронзительно-милыми
              E
   Она поет в опере

Chorus:
 E
   Звуки, запахи
F#m
    Люди, завтраки
 A                             E
   Утренний чай - все как всегда
    E
   Как жаль
        F#m
   Что рядом нет тебя
 A                 E
   По-моему это любовь

Verse:
  Hа морском берегу блаженно скучая
  Как всегда по утру
  Водолазы пьют чай с космонавтами
  Спасенными ночью, усталыми очень
  В холодильнике пусто, в туалете темно
  Hастроение гнусное, но уже все равно
  Ла-ла-лай-ла-ла
  И поет, как всегда, в унитазе вода
  Ррррррррррррррррррра!

[Chorus]

e:-----------------:----------------------:----------------------:------...
B:-9-9---9---7-----:-11-11---11---9-------:-11-11---11---9-------:------...
G:-9-9---9---9---9-:-11-11---11---11---11-:-11-11---11---11---11-:------...
D:---------------9-:-------------------11-:-------------------11-:------...
A:-----------------:----------------------:----------------------:-2-0--...
E:-----------------:----------------------:----------------------:-----3...

   Как жаль
   Что рядом нет тебя
   По-моему это любовь

    E               F#m
e:---------/4------/4---2---4p2-----
B:--------------------------------2-
G:-/4-------------------------------

 A                 E
   По-моему это любовь