ЧайФ: другие аккорды и тексты

Аккорды и текст: ЧайФ - "Кто-то хитрый"

» Главная
» Аккорды
» Школа игры
» Софт для гитары
» Схемы примочек
» Магазин
» Продам
» Куплю
» Фотографии
» [ne]FORMAT
» Ссылки
» Форум
» Знакомства
» MIDI
» Контакты


»



Кто-то хитрый

ЧайФ


Intro:

e------1------------6--------------------1-------------6--------|
h--2-----------2------5---5-----1-----------------2------5---5--|
g----3---3---3---3------6-----2---2----3---3----3---3------6----|
d--4----------------5----------------4-----------------5--------|
a----------1----------------------------------1-----------------|
e---------------------------1-----------------------------------|

--5----5------------1--|
----4----4------2------|
--------------3---3----|
--4----3---------------|
------------1----------|
-----------------------|

Сама песня:

------1--------1-------------------------1------------|
------------------------1-----------------------------|
----3---3----3---3----3---3------------2---2----------| (*)
------------------------------------------------------|
--1---------------------------------------------------|
-----------4--------2----------------1----------------|
  У тебя на полке   плюшевый мишка,заяц в футболке...
/* До слов "...а за старым шкафом" повторяем (*)   */

-------1-------------------6-----------------1----------|
-----------------2-----------5---5----------------------|
-----3---3-----3---3-----------6-----------2---2--------|
--4------------------------5----------------------------|
-------------1------------------------------------------|
-----------------------------------------1--------------|
..а за старым шкафом  портфель без ручки и старая шляпа

------1-----------1-------6--------5----5------------1--|
----------------------------5---5----4----4------2------|
----3---3-------3---3---------6----------------3---3----|
--4-----------------------5--------4----3---------------|
--------------1------------------------------1----------|
--------------------------------------------------------|
кто-то хитрый и большой    наблюдает      за тобой.

Am
  У тебя на полке -
  Dm              E7
Плюшевый мишка и заяц в футболке.
Am
  Ты давно когда-то
 F                  E7
Ранним утром их нашла под елкой.
A7              Dm
  А за старым шкафом -
     F                E7
Портфель без ручки и летняя шляпа.
Dm              Am
  Кто-то хитрый и большой
F          E7
  Наблюдает за тобой.

У тебя в кармане
Два мелка и волшебный камень.
Ты волшебный камень
На Восьмое марта подаришь маме.
А с высокой крыши
Все на свете слышно.
Кто-то хитрый и большой
Наблюдает за тобой.

Подобреет стужа -
Босиком пройдешь по луже.
Ночью в ней купалась
Круглая луна и тебе досталось.
И теперь понятно
На луне откуда пятна.
Кто-то хитрый и большой
Наблюдает за тобой.