Би-2: другие аккорды и тексты

Аккорды и текст: Би-2 - "Серебро"

» Главная
» Аккорды
» Школа игры
» Софт для гитары
» Схемы примочек
» Магазин
» Продам
» Куплю
» Фотографии
» [ne]FORMAT
» Ссылки
» Форум
» Знакомства
» MIDI
» Контакты


»



Серебро

Би-2



|---------------0----------------------------0----------------------0----|
|-----3-0-1---1---------/6-6-6-5--------1--1-------/6-6-6-5--1-3--1------|
|------------------2-------------7-5-4----------2---------------------2--|
|--2---------------------------------------------------------------------|
|------------------------------------------------------------------------|
|------------------------------------------------------------------------|

|------------|
|--/6-6-6-5--|
|------------|
|------------|
|------------|
|------------|


|--5р7-8-7-5р7p5---------------------10~--12~--15-13-12h13p12-10--|
|---------------6--5h6-8-6-5h6p5----------------------------------|
|--------------------------------7--------------------------------|
|-----------------------------------------------------------------|
|-----------------------------------------------------------------|
|-----------------------------------------------------------------|


|--/10-10-10-12-------------------------15-13-12h13p12-10---------|
|----------------/10-10-10-12~~~---10/----------------------------|
|-----------------------------------------------------------------|
|-----------------------------------------------------------------|
|-----------------------------------------------------------------|
|-----------------------------------------------------------------|

|--/19-19-19-19-19--17---/12-12-12-12-13-12-10----/10-10-10-10/12--|
|------------------------------------------------------------------|
|------------------------------------------------------------------|
|------------------------------------------------------------------|
|------------------------------------------------------------------|
|------------------------------------------------------------------|

|-------------------|
|--/10-10-10-10/12--|
|-------------------|
|-------------------|
|-------------------|
|-------------------|

     Am   F
Я не вернусь
Dm     Em    Am
Так говорил когда-то
  F  Dm    Em    Am
И туман глотал мои слова
    F    Dm    Em
И превращал их в воду
    Am  F
Я всё отдам
Dm     Em   Am
За продолжение пути
      F
Оставлю позади
Dm    Em     Am  F  Dm  Em
Свою беспечную свободу

Припев:
Dm    Em       Am
Hе потерять бы в серебре
   F
Её одну
Dm   Em
Заветную

solo:

1|-5-7-8-7----5h7-5---|-----5--------------|
2|------------------6-|-6-8---8----6h8-6---|
3|--------------------|------------------7-|

1|--------------------|----|---------------|
2|-3--5---8-6-5h7p5-3-|----|-3-3-5---------|
3|--------------------|----|---------2-2-4-|

1|--------------------|-7-7-7-7-7-7-5------|
2|--------8-6-5h7p5-3-|--------------------|
3|-555--2-------------|--------------------|

1|-0-0-0-0-1-0--------|------------5555--7-|
2|-------------3------|-3333--5------------|
3|--------------------|--------------------|

Проигрыш:
Am   F  Dm  Em (4 раза)

Hе по себе
От этой тихой и чужой зимы
С которой я на ты
Hам не стерпеть друг друга
И до войны
Мне не добраться никогда
Моя безумная звезда
Ведет меня по кругу

Припев.

А в облаках
Застыл луны неверный свет
И в нем перемешались города и я
Зову её несмело

1|-7-8-7-8-7-8-7-8-7-8-7-8-7-8-7-8-7-8-7-8-|

1|-7-8-7-8-7-8-7-8-7-8-7-8-|

Припев.