Би-2: другие аккорды и тексты

Табулатура: Би-2 - "Серебро"

» Главная
» Аккорды
» Школа игры
» Софт для гитары
» Схемы примочек
» Магазин
» Продам
» Куплю
» Фотографии
» [ne]FORMAT
» Ссылки
» Форум
» Знакомства
» MIDI
» Контакты


»



Серебро

Би-2

год: bedokyr@yahoo.com

E|-------------|----------------------------------------|
B|-------------|----------------------------------------|
G|-------------|----------------------------------------|
D|---0---------|--3--3--3--2----0-----------2-----------|
A|-----2--3----|-------------------3--3--3-----0--------|
E|-0-----------|----------------------------------------|
   Я не вернусь   Так говорил когда то    И туман                                                       
                                                                    
E|----------------------|-----------------------|
B|----------------------|-----------------------|
G|----------------------|-----------------------|
D|--3--3--3--2----0-----|----------------2----0-|
A|-------------------3--|----3--3--3--3---------|
E|----------------------|-------------------1---|
   Глотал мои слова      И превращал их в воду
                                                                        
E|---------------|--------------------------------------------|----------------|
B|---------------|--------------------------------------------|----------------|
G|---------------|--------------------------------------------|----------------|
D|----0----------|--3--3--3---2--0-----------------------2----|-2--0---------2-|
A|-------2--3----|------------------3--2--3--3--3--3-3--------|------3--2--3---|
E|-0-------------|------------------------------------------1-|----------------|
    Я все отдам      За продолжение пути Оставлю позади  Свою беспечную свободу 
                                                                     
E|----------------------------------|----------|-------------------|
B|----------------------------------|----------|-------------------|
G|----------------------------------|----------|-------------------|
D|-3--3--3--2--0-----------2--------|-2--0-----|------3------------|
A|----------------3--2--3-----0-----|-------3--|--0--------0----2--|
E|----------------------------------|----------|-------------------|
   Не потерять бы в серебре ее        одну  Заветную


E|-------------|----------------------------------------|
B|-------------|----------------------------------------|
G|-------------|----------------------------------------|
D|---0---------|--3--3--3--2----0-----------2-----------|
A|-----2--3----|-------------------3--2--3-----0--------|
E|-0-----------|----------------------------------------|
   Не по себе     От этой тихой и чужой зимы                                                                   
                                                                      
E|-------------|------------------------|----------------------|
B|-------------|------------------------|----------------------|
G|-------------|------------------------|----------------------|
D|----3--3--3--|--2----0----------------|-----2---------0------|
A|-------------|----------3----3--3--3--|--3-------------------|
E|-------------|------------------------|------------1---------|
    С которой я на ТЫ  Нам  не  стерпеть     друг    друга
                                                                    
E|---------------------|-------------------------|
B|---------------------|-------------------------|
G|---------------------|-------------------------|
D|----0----------------|----3--3--3--2--0--------|
A|-------2--3----------|-------------------3--2--|
E|-0-------------------|-------------------------|
  И до войны            Мне не добраться никогда
                                                                       
E|-------------------------|---------------------------|
B|-------------------------|---------------------------|
G|-------------------------|---------------------------|
D|-----------------2-------|----3--3--3--2----0-----2--|
A|--3--3--3--3--3----------|---------------------3-----|
E|----------------------1--|---------------------------|
Моя безумная звезда         Ведет меня по кругу


E|----------------------------------|----------|-------------------|
B|----------------------------------|----------|-------------------|
G|----------------------------------|----------|-------------------|
D|-3--3--3--2--0-----------2--------|-2--0-----|------3------------|
A|----------------3--2--3-----0-----|-------3--|--0--------0----2--|
E|----------------------------------|----------|-------------------|
   Не потерять бы в серебре ее        одну        Заветную


E|-------------|----------------------------------------|
B|-------------|----------------------------------------|
G|-------------|----------------------------------------|
D|---0---------|--3--3--3--2----0-----------2-----------|
A|-----2--3----|-------------------3--2--3-----0--------|
E|-0-----------|----------------------------------------|
  А в облаках    Застыл луны неверный свет И в нем                                                      
                                                                          
E|-------------------------|------------|---------------------|
B|-------------------------|------------|---------------------|
G|-------------------------|------------|---------------------|
D|----3--3--3--2--0--------|-----2------|--3--3--3--2---0--2--|
A|-------------------3--2--|--3-----0---|---------------------|
E|-------------------------|------------|---------------------|
  Перемешались города и я  Зову ее несмело 
                                                                   
E|----------------------------------|----------|-------------------|
B|----------------------------------|----------|-------------------|
G|----------------------------------|----------|-------------------|
D|-3--3--3--2--0-----------2--------|-2--0-----|------3------------|
A|----------------3--2--3-----0-----|-------3--|--0--------0----2--|
E|----------------------------------|----------|-------------------|
   Не потерять бы в серебре ее        одну        Заветную