Би-2: другие аккорды и тексты

Аккорды и текст: Би-2 - "Мой рок-н-рол"

» Главная
» Аккорды
» Школа игры
» Софт для гитары
» Схемы примочек
» Магазин
» Продам
» Куплю
» Фотографии
» [ne]FORMAT
» Ссылки
» Форум
» Знакомства
» MIDI
» Контакты


»



Мой рок-н-рол

Би-2


Перебор:

	F:

	e||---------1-------|
	b||-----1-----1---1-|
	g||---2---2-----2---|
	d||-----------------|
	a||-3---------------|
	e||-----------------|

	Am:

	e||---------0-------|
	b||-----1-----1---1-|
	g||---2---2-----2---|
	d||-----------------|
	a||-0---------------|
	e||-----------------|

	G 

	e||---------3-------|
	b||-----0-----0---0-|
	g||---0---0-----0---|
	d||-----------------|
	a||-----------------|
	e||-3---------------|

    F            G
И то, что было набело 
 Am
Откроется потом
  F
Мой рок-н-ролл
  G                Am
Это не цель и даже не средство
Не новое ,а заново
Один и об одном
Дорога в мой дом
И для любви это не место

Припев:
    F                   G 
Прольются все слова, как дождь
      Am
И там, где ты меня не ждёшь
   F               G        Am
Ночные ветры принесут тебе прохладу
   F              G
На наших лицах без ответа
            Am               
Лишь только отблески рассвета
   F           G           Am
Того, где ты меня не ждешь

А дальше- это главное
Похожий на тебя
В долгом пути 
Я заплету волосы лентой

И не способный на покой 
Я знак подам тебе рукой
Прощаясь с тобой
Как будто с легендой

Припев

И то, что было набело 
Откроется потом
Мой рок-н-ролл
Это не цель и даже не средство
Не новое ,а заново
Один и об одном
Дорога в мой дом
И для любви это не место