Ария: другие аккорды и тексты

Аккорды и текст: Ария - "Замкнутый круг"

» Главная
» Аккорды
» Школа игры
» Софт для гитары
» Схемы примочек
» Магазин
» Продам
» Куплю
» Фотографии
» [ne]FORMAT
» Ссылки
» Форум
» Знакомства
» MIDI
» Контакты


»



Замкнутый круг

(альбом "Генератор зла")

Ария



Вступление:

    Hm       G       A              Hm       G       A 
  E ----------------|---------------|---------------|----0----------|
  B -----3-------0--|------2--------|----3-------0--|----2--------3-|
  G -------4-------0|----2----------|------4-------0|----2-------[42|
  D ---4-------0----|--2------------|--4-------0----|--2-2----------|
  A -2--------------|0--------------|2--------------|0---0---2>>9-2-|
  E ---------3------|---------------|--------3------|----0----------|

Проигрыш:

/   Hm       G       A              Hm       G       A 
| E ----------------|---------------|---------------|---------------|
| B -----3-------0--|------2-----[32|3]--3-------0--|---------------|
| G –4]----4-------0|----2----------|4-----4-------0|----6----------|
| D ---4-------0----|--2------------|--4-------0----|--7-7----------|
| A -2--------------|0--------------|2--------------|5---7>>>>>>0---|
| E ---------3------|---------------|--------3------|---------------|
|
| Басс-гитара:
| D -------42------424-2------------|4-----024-2-0--|-04------------|
 A ---------2------|----202--------|--------------4|2--------------|



Hm       G       A
--------------------------
--------------------------
-----7--------4---------6-
-9-----9------5-----7-----
---9-------5-------7------
-7-------3-------5--------

Первый куплет:

    Hm       G       A              Hm       G       A 
  E ----------------|---------------|---------------|----0----------|
  B -----3-------0--|------2---[320-|----3-------0--|----2----------|
  G -------4-------0|----2----------|4]----4-------0|----2----------|
  D ---4-------0----|--2------------|--4-------0----|--2-2----------|
  A -2--------------|0--------------|2--------------|0---0---2>>9---|
  E ---------3------|---------------|--------3------|----0----------|

     A       G       A               Hm      G       A     T=02020
  E ----------------|------0--------|---------------|--------T------|
  B -----2---------0|------2------23>7]----------0--|------2---2----|
  G –-(2)--2-----0--|----2------[4--|----7-----0---0|----2-------2--|
  D -----------0----|--2------------|------9--------|--2-----------2|
  A -0--------------|---------------|--9------------|0--------------|
  E ---------3------|2--------------|7-------3------|---------------|
						  
    Em	         A               D       C       B
  E ---------0------|--------0------|2-2-----0------|1--------------|
  B -------0---0----|------2---2----|3-3-----1------|3--------------|
  G -----0-------0--|----2-------2--|2-2-----0------|3--------------|
  D ---2-----------2|--2-----------2|0-0-----2------|3--------------|
  A ----------------|0--------------|--------3------|1--------------|
  E -0--------------|---------------|--------3------|1--------------|
  E ------14--12109-|109-7-9--0-----|14--1414121212-|7--------------|

    Hm        G         A   Hm         G         A
	Мы колесили по дорогам, меняя струны и подруг...
      A G             A 
	О-о, нам не хватало рук...
    Hm         G           A                         Em 
	И если все добро от Бога, нам не светит теплый рай,
               A               D     C(A)       B(G)
	Сколько не играй – это просто замкнутый круг.

Проигрыш.

Второй куплет играется аналогично, только начиная с аккорда Em параллельно вступает следующее соло:

    Em    vib.       A               D       C       B        dist.
  E ------14--12109-|109-7-9--------|14----1412----1211-------------|
  B ----------------|---------------|----15------13-|12-------------|
  G ----------------|---------------|--14------12---|11-------------|
  D ----------------|---------------|---------------|---------------|
  A ----------------|---------------|---------------|---------3—3-20|     
  E ----------------|---------------|---------------|---------------|

	Что дальше будет – неизвестно, хотя нетрудно предсказать...
	О-о, нам нечего терять...
	Какая жизнь - такие песни, жизнь нелепа и смешна,
      Дальше - тишина, не объехать и не убежать.

Припев 

	 Em               A 	  Em                A
  	Да, да, да, все сказано, да, да, давным-давно,
       Em               A             D        C        B
      Да, да, да, все связано самым древним и хитрым узлом...
      Да, да, да, все здорово, да, да, гори огнем,
      Да, да, мы тоже золото, мы сверкаем, пока не умрем...

Параллельно, рифф (играть в два раза медленнее чем написано)
     Em      A       Em      A       Em      A       D  C  B  
  A -2-2-2-2-0-0-32-|--2-2-2-0---32-|--2-2-2-0---32-|----------3320|     
  E -0-------------320--------30---320---------30--320-------------0

Третий куплет 

    Hm         G            A   G A Hm           G        A G A 
Другая кровь, другие раны,     совсем другие времена,
      A G       A       G A
      О-о, другие имена...
    Hm           G          A                    Em
      И, словно щепкой в океане нами тешатся шторма,
                A                 D         C        B
      А ночь короче дня, свет достанет нас даже со дна.

Припев.

     D                         Em       D                    Em
      Слишком грустно быть бессмертным - те же лица день за днем,
     D               Em  Hm                   Em
      Те же глупые ответы  на вопрос "Зачем живем?".
     D                          Em   D                       Em 
      Не всем волчатам стать волками, не всякий взмах сулит удар...
     D                               Em   D                        Em  
Есть странный дар - лететь на пламя, чтоб в нем остаться
 навсегда.

Окончание:

    Hm       G       A              Hm       G       A 
  E ----------------|---------------|---------------|----0----------|
  B -----3-------0--|------2--------|----3-------0--|----2----------|
  G -------4-------0|----2----------|------4-------0|----2----------|
  D ---4-------0----|--2------------|--4-------0----|--2-2----------|
  A -2--------------|0--------------|2--------------|0---0----------|
  E ---------3------|---------------|--------3------|----0----------|