Ария: другие аккорды и тексты

Аккорды и текст: Ария - "Все, что было"

» Главная
» Аккорды
» Школа игры
» Софт для гитары
» Схемы примочек
» Магазин
» Продам
» Куплю
» Фотографии
» [ne]FORMAT
» Ссылки
» Форум
» Знакомства
» MIDI
» Контакты


»



Все, что было

(альбом "Кровь за кровь")

Ария



Интро

E|-------------0-----------------------------0-----|-0-----------------------------------------0-----|
H|-------------0-----0-----------------0-----------|-------------------------------------3-----------|
G|-------0-----------0-----2-----0-----0-----------|-------------------------0-----------------------|
D|-------2-----------------2-----2-----------------|-------------2-----------------------------------|
A|-------------------------------------------------|-3-----3-----------3-----------3-----------------|
E|-0-----------------------------------------------|-------------------------------------------------|


E|-------------------2-----0-----------0-----------|-------------5-----7p5\3-3p0---5-----7p5\3-3p0---|
H|-------------3-----3-----------3-----------3-----|-------------2---------------2-----------------2-|
G|-------2-----------2-----------------------------|-------------2-----------------------------------|
D|-0-------------------^---------------------------|-------2-------^---------------------------------|
A|---------------------|---------------------------|-0-------------|---------------------------------|
E|-------------------------------------------------|-------------------------------------------------|


E|-------------0-----------------------------------|-------------------------0-----------------------|
H|-------------0-----0-----------------------------|-------------------------------0-----------------|
G|-------0-----------0-----2p0---0-----------------|-------------0-----------------------------0-----|
D|-------2-----------------2-----2-----------------|-------2-----------2-----------------4-----------|
A|-------------------------------------2-----------|-3-----------------------------------------------|
E|-0-----------------------------------------3-----|-------------------------------------------------|


E|-------5--5--5-----2--2--2-----------------------|-2-----0-----------------------------------------|
H|-------7--7--7-----3--3--3-----3--3--3-----------|-3-----3p0---0-----5-----------------------------|
G|-7-----------------------------2--2--2-----------|-------------2-----4-----------------------------|
D|-0-----------------------------------------------|-------------------------------------------------|
A|-------------------------------------------------|-------------------------------------------------|
E|-------------------------------------------------|-------------------------------------------------|


Куплет 1:
                                                                       
     E|----------------------------------|-----3-----------3---------------|
     H|------8-----------8---------------|---------5-----------5-------5---|
     G|----------9-----------9-------9---|-------------5-----------5-------|
     D|--------------9-----------9-------|---------------------------------|
     A|--7-------------------------------|-3-------------------------------|
     E|----------------------------------|---------------------------------|
      Дверь       на ключ            и  свинцом      тоска 
                  
     E|------5-----------5---------------|-----------------5---------------|
     H|----------7-----------7-------7---|-------------5-------5-----------|
     G|--------------7-----------7-------|---------6---------------6-------|
     D|----------------------------------|-----7-----------------------7---|
     A|--5-------------------------------|-0-------------------------------|
     E|----------------------------------|---------------------------------|
        Боль       в   душе           словно смерть        близка     

     E|----------------------------------|-----3-----------3---------------|
     H|------8-----------8---------------|---------5-----------5-------5---|
     G|----------9-----------9-------9---|-------------5-----------5-------|
     D|--------------9-----------9-------|---------------------------------|
     A|--7-------------------------------|-3-------------------------------|
     E|----------------------------------|---------------------------------|
    Один     лишь        шаг         сможет    всё   решить    

     E|------5-----------5---------------|-----------------5---------------|
     H|----------7-----------7-------7---|-------------5-------5-----------|
     G|--------------7-----------7-------|---------6---------------6-------|
     D|----------------------------------|-----7---------------------------|
     A|--5-------------------------------|-0-------------------------------|
     E|----------------------------------|---------------------------------|
     Теперь        ты     враг,        я   не  знаю,   как мне жи - и - ить,      

     E|----------5-------3-------2-------|-----------------------------0---|
     H|------5---------------------------|-------------0-----------0-------|
     G|--5-------------------------------|---------2-------2---0-----------|
     D|----------------------------------|-----2---------------------------|
     A|--0-----------0-------0-------0---|---------------------------------|
     E|----------------------------------|-0-------------------------------|
                 Как    даль    -      ше     жи - и - ить ...       
    
     E|------------------------------0---|-------------2---0-------0-------|
     H|--1-----------------------3-------|---------3---3-------3-------3---|
     G|------------------0---------------|-----2-------2-------------------|
     D|----------2-----------------------|-0-------------^-----------------|
     A|------3-------3-------3-----------|---------------|-----------------|
     E|----------------------------------|---------------------------------|
 
     E|--2---0---------------------------|
     H|--3---3p0-0---5-------------------|
     G|----------2---4-------------------|
     D|----------------------------------|
     A|----------------------------------|
     E|----------------------------------|

Куплет 2 

    	Мне колдун предсказал печаль 
     	Долгий путь в грозовую даль 
     	Он, словно зверь, чуял дым беды 
      	Закрыта дверь, ливень смоет все следы... 
		
     E|----------5-------3-------2-------|---------0-----------------------|
     H|------5---------------------------|---------0-^---------------------|
     G|--5-------------------------------|---------0-|---------------------|
     D|----------------------------------|-----2---2-|---------------------|
     A|--0-----------0-------0-------0---|-----------|---------------------|
     E|----------------------------------|-0-------------------------------|
                 Так    хо -  чешь              ты - ы -  ы... 

Припев
		      C   D
    Все, что было - свет мой,
                     Em
    Чистый и святой.
                     C   D
    Все, что было - рок мой,
                 Em
    Жадный и слепой.
                       C    D
    Все, что будет - крест мой,
                     C   D
    Семь кругов пройти мне
                  C D
    В огненой пустыне...
		 
        Голос твой заблудился здесь 
  	    День и ночь он звучит во мне 
   	    И я молю отпустить меня 
     	Но за стеклом вижу вновь твои глаза... 
    	Твои глаза 

    	   Em              Em
        Я видел сон, как в этот дом,
            C            C
        Ты сердце принесла свое.
           Em            Em      D       A
        И боль прошла, и умер страх в душе!
             Em                Em
        Но дверь на ключ, и страх живуч,
              C            C
        Что проклят я и обречен,
             Em              Em     D         A
        Свинцом тоска, так словно смерть близка,
       A                Em  Em
        Как смерть близка!
                                 C    D  Em      |
                Все, что было - рок твой         |
                                   C     D  Em   | 2 раза
                Все, что будет - крест твой      |
                                                 |

                 D            Em
                Словно проклят я...